Oops, an error
Loading. Please wait.

Born To Die tab

version 1
version 1

Whole song

Interactive

4,066 views 72 this week
1 commentread comment
1 2 3 4 5
x 6
add to favorites
×
Save as Personal and add changes to this tab that will be seen only by you. Learn more ›
×
You can save this tab as Personal to edit and correct it or add notes. All changes will be seen only by you. Learn more »
launch autoscroll
font size
0
reset
how to read this tab
guitar tuner
edit
Autoscroll
slow
fast
+/-
esc
set tempo
stop
Author
Difficulty
Born To Die - Lana Del Rey 
Tabbed by: Harrison Wright; Original composition found here: https://www.youtube.com/watch?v=bgmhB2QMfx0
Tuning:Standard 



Verse

e|-----------------|---------------|-----------|-----------------|
B|-0-0-0-0---0-----|-0-0-0---0-----|-----0-----|-------------0---|
G|---------2---2---|-------2---2---|-2-2---2-0-|---------0-2-----|
D|---------------0-|-------------0-|-0---------|-2--2--2---------|
A|-----------------|---------------|-----------|-3-(3)-----------|
E|-3---------------|-3-------------|-----------|-------------0---|

e|-------------|---------------|---------------|-----------------|
B|-0-0-0---0---|-------0-------|-------0-------|-----------------|
G|-------2---2-|-2-0-2---2-0-2-|-2-0-2---2-0-2-|-----------------|
D|-----------0-|-----0-------0-|-----0-------0-|-----------------|
A|-------------|---------------|---------------|-----------------|
E|-------------|---------------|---------------|-----------------|

e|-----------------|---------------|-----------|-----------------|
B|-0-0-0-0---0-----|-0-0-0---0-----|-----0-----|-------------0---|
G|---------2---2---|-------2---2---|-2-2---2-0-|---------0-2-----|
D|---------------0-|-------------0-|-0---------|-2--2--2---------|
A|-----------------|---------------|-----------|-3-(3)-----------|
E|-3---------------|-3-------------|-----------|-------------0---|

e|-------------|---------------|---------------|-----------------|
B|-0-0-0---0---|-------0-------|-------0-------|-----------------|
G|-------2---2-|-2-0-2---2-0-2-|-2-0-2---2-0-2-|-----------------|
D|-----------0-|-----0-------0-|-----0-------0-|-----------------|
A|-------------|---------------|---------------|-----------------|
E|-------------|---------------|---------------|-----------------|

Chorus

e|-------------|-0---------|-------------------------------------|
B|---------0---|---3-0-----|---------------------0---------------|
G|-----0-2-----|-------2---|-2-0-2-0-2-0-2-2-0-2---2-0-----------|
D|-2-2---------|---------0-|-----0---0---------0-----------------|
A|-3-----------|-----------|-------------------------------------|
E|---------0-0-|-----------|-------------------------------------|


e|-------------|-0---------|-------------------------------------|
B|---------0---|---3-0-----|---------------------0---------------|
G|-----0-2-----|-------2---|-2-0-2-0-2-0-2-2-0-2---2-0-----------|
D|-2-2---------|---------0-|-----0---0---------0-----------------|
A|-3-----------|-----------|-------------------------------------|
E|---------0-0-|-----------|-------------------------------------|

e|-----0-0-0-2-3-3-|-3-2-3-2-3-5-2--|-2-0-2-3-0------------------|
B|---1-----------0-|-------------3--|----------------------------|
G|---------------0-|-------------2--|----------------------------|
D|-2---------------|-------------0--|----------------------------|
A|-3-----3---------|----------------|---------3------------------|
E|---------------0-|-----0----------|----------------------------|

e|-------------|-0---------|-----------------|-------------------|
B|---------0---|---3-0-----|-----------------|-------------------|
G|-----0-2-----|-------2---|-2-2-0-2-0-2-0-2-|-2p0-2/4-----------|
D|-2-2---------|---------0-|-0---------0-----|---------5\2-------|
A|-3-----------|-----------|-----------------|-------------------|
E|---------0-0-|-----------|-----------------|-------------0-----|



| /  slide up
| \  slide down
| h  hammer-on
| p  pull-off
| ~  vibrato
| +  harmonic
| x  Mute note

            
            
Suggest correction
Creating personal tab
Creating personal tab
You can edit any tab online and save it as your Personal.

You can edit, replace or remove any tab part or add personal notes – all changes will be seen only by you.

Personal tabs can be accessed anytime from any device, even offline.
Learn more »
comments
print report bad tab
1 comment total.
0 reply
dawid.s12354 10 Feb 10, 2017 08:55 AM

super ekstra elo 3 2 h0

guest
You may want to rate the tab now too:
select rating
Wanna post a correction for this tab? Suggest correction