Oops, an error
Loading. Please wait.

Brooklyn Baby Tab

38,538 views 237 this week
7 commentsread comments
1 2 3 4 5
excellent!
x 31
add to favorites
launch autoscroll
font size
0
reset
how to read this tab
guitar tuner
Tab Pro tools
  • play this tab
  • loop segment
  • change instrument
  • show fretboard
  • metronome
Autoscroll
slow
fast
+/-
esc
set tempo
stop
Contributor
Difficulty
novice
-------------------------------------------------------------------------------
                             Brooklyn Baby - Lana Del Rey
-------------------------------------------------------------------------------


YouTube Lesson: https://www.youtube.com/watch?v=IgDd9StIwBM

Tuning: Standard with CAPO 1st fret! 

Intro
e|--------------------------------|
B|-5-5-5-5-5-5-5---0-0-0-0-0-0-0--|
G|-5-5-5-5-5-5-5---0-0-0-0-0-0-0--|
D|-5-5-5-5-5-5-5---2-2-2-2-2-2-2--|
A|--------------------------------|
E|--------------------------------| 2x

e|-------7-5-------------2-0------|
B|-5-5-5-5-5-8-5---0-0-0-0-0-3-0--|
G|-5-5-5-5-5-5-5---0-0-0-0-0-0-0--|
D|-5-5-5-----------2-2-2----------|
A|--------------------------------|
E|--------------------------------| 2x

Verse (Arpeggios here are quite random, you can improvize it a bit) 

   G                Em               C                     G                 F
e|------------------------------------------------------------------------------------|
B|-3----------------0----------------5-------5-----5---------3-----3-----3------------|
G|-0----------------0----------------5---------5-----5-----0---0-----0---------2------|
D|-0----------------2----------------5-----------5-----5---0-----0-----0---------3----|
A|-2----------------2--------------------------------------2-----------------------3--|
E|-3----------------0--------------------------------------3-----------------1--------|

   G                Em               C                     G                 F
e|------------------------2-2-2-2-0---------------------------------------------------|
B|-3----------------0----------------5-------5-----5-------------------------1--------|
G|-0----------------0----------------5---------5-----5-----0-----------------2--------|
D|-0----------------2----------------5-----5-----5-----5---0-----------------3--------|
A|-2----------------2--------------------------------------2-----------------3--------|
E|-3----------------0--------------------------------------3-----------------1--------|

   Em               C                 Em                   F
e|---------------------------1p0----------------------------------------------|
B|-0---0-----0------1-----------------0--------------------1------------------|
G|-0-----0-----0----0-----------------0--------------------2------------------|
D|-2-------2-----2--2-----------------2--------------------3------------------|
A|-2----------------3-----------------2--------------------3------------------|
E|-0----------------------------------0--------------------1------------------|

Chorus

e|-------------------------------------------------------7-5-------|
B|-5-5-5-5-5-5-5---3-3-3-3-3-3-3---1-1-1-1-1-1-1---5-5-5-5-5-8-5---|
G|-5-5-5-5-5-5-5---4-4-4-4-4-4-4---2-2-2-2-2-2-2---5-5-5-5-5-5-5---|
D|-5-5-5-5-5-5-5---5-5-5-5-5-5-5---3-3-3-3-3-3-3---5-5-5-----------|
A|-----------------------------------------------------------------|
E|-----------------------------------------------------------------| 

e|------------------------7-5----------------------13-13-13-15-13-13-13-|
B|--1-1-1-1-1-1-1---5-5-5-5-5-8-5---1-1-1-1-1-1-1--13-13-13-13-13-16-13-|
G|--2-2-2-2-2-2-2---5-5-5-5-5-5-5---2-2-2-2-2-2-2--13-13-13-13-13-13-13-|
D|--3-3-3-3-3-3-3---5-5-5-----------3-3-3-3-3-3-3-----------------------|
A|----------------------------------------------------------------------|
E|----------------------------------------------------------------------|  

e|-------------------------------------------------------7-5-------|
B|-5-5-5-5-5-5-5---3-3-3-3-3-3-3---1-1-1-1-1-1-1---5-5-5-5-5-8-5---|
G|-5-5-5-5-5-5-5---4-4-4-4-4-4-4---2-2-2-2-2-2-2---5-5-5-5-5-5-5---|
D|-5-5-5-5-5-5-5---5-5-5-5-5-5-5---3-3-3-3-3-3-3---5-5-5-----------|
A|-----------------------------------------------------------------|
E|-----------------------------------------------------------------| 

e|------------------------7-5----------------------13-13-13-15-13-13-13-|
B|--1-1-1-1-1-1-1---5-5-5-5-5-8-5---1-1-1-1-1-1-1--13-13-13-13-13-16-13-|
G|--2-2-2-2-2-2-2---5-5-5-5-5-5-5---2-2-2-2-2-2-2--13-13-13-13-13-13-13-|
D|--3-3-3-3-3-3-3---5-5-5-----------3-3-3-3-3-3-3-----------------------|
A|----------------------------------------------------------------------|
E|----------------------------------------------------------------------|  

e|--------------------------------|
B|-5-5-5-5-5-5-5---0-0-0-0-0-0-0--|
G|-5-5-5-5-5-5-5---0-0-0-0-0-0-0--|
D|-5-5-5-5-5-5-5---2-2-2-2-2-2-2--|
A|--------------------------------|
E|--------------------------------| 2x

Outro

e|-------7-5-------------2-0------|
B|-5-5-5-5-5-8-5---0-0-0-0-0-3-0--|
G|-5-5-5-5-5-5-5---0-0-0-0-0-0-0--|
D|-5-5-5-----------2-2-2----------|
A|--------------------------------|
E|--------------------------------|

e|----5-----5h7p5----------0-----0h2p0-------|
B|------5---------8-5-0------0---------3-0---|
G|--------5--------------------0-----------0-|
D|-/5-------------------/2-------------------|
A|-------------------------------------------|
E|-------------------------------------------|

e|----5-----5h7p5----------0-----0h2p0-------|
B|------5---------8-5-0------0---------3-0---|
G|--------5--------------------0-----------0-|
D|-/5-------------------/2-------------------|
A|-------------------------------------------|
E|-------------------------------------------|

e|----5-----7-5------0-|
B|------5-------8-5--0-|
G|--------5----------0-|
D|-/5----------------2-|
A|---------------------|
E|---------------------|
comments
print report bad tab
7 comments total. Showing first comments.
+1 reply
melissa_rosie wrote on June 10 2014, 10:21 am

really beautiful tab, thanks for posting

0 reply
Bibbuns wrote on June 12 2014, 07:14 am

Can someone please post the chords? Please!

0 reply
tele.kom wrote on June 12 2014, 08:35 am

Intro
C - Em

Verse
In the tab

Chorus
C - G - F
C - F - C - F

I want to post or [tab]
guest
You may want to rate the tab now too:
select rating
Please do not post tabs as comments. Select "correction" instead!