Oops, an error
Loading. Please wait.

Flipside Tab

7,530 views 51 this week
1 commentread comment
1 2 3 4 5
excellent!
x 11
add to favorites
launch autoscroll
font size
0
reset
how to read this tab
guitar tuner
Tab Pro tools
  • play this tab
  • loop segment
  • change instrument
  • show fretboard
  • metronome
×
Best way to learn
"Flipside"
Autoscroll
slow
fast
+/-
esc
set tempo
stop
Contributor
Lana Del Rey - Flipside (2014)
Chords 15/7-2014 by Jon Malmin (jogusmal@hotmail.com)
Tuning: Drop D (DADGBe)

I suggest playing this song in Drop D tuning, as the lower D gives the song the "heavy"
feeling it has on the album. Otherwise, you can simply play the chords in standard E tuning. 
There's a lot of background noise in the song, making some parts hard to hear. The riff
during the outro, in particular, is a suggestion of how to play it based on my approximation,
so I'm sure you can improve on it or find another way of playing it that's just as good!

If you're wondering about how to play the chords in Drop D tuning, look at the bottom of the tab!

Intro riff (the notes in parentheses are optional):
 
     E  E  E  E  E  E  E  E     E  E  E  E  E  E  E  E   
E||--------------------------|--------------------------|
B||--------------------------|--------------------------|
G||--6--6--6--6--6--6--6--6--|--1--1--1--1--1--1--1--1--|
D||--------------------------|--------------------------|
A||-(0)----------------------|--------------------------|
D||--------------------------|-(2)----------------------|


  E  E  E  E  E  E  E  E     E  E  E  E  E  E  E  E    
--------------------------|--------------------------||
--------------------------|--------------------------||
--2--2--2--2--2--2--2--2--|--2--2--2--2--2--2--2--2--||
--------------------------|--------------------------||
--------------------------|--------------------------||
-(0)----------------------|--------------------------||

(Chord pattern in parentheses as riff plays during verse)
(A)            (E)         
Are you gonna hurt me now?
(D)
Or are you gonna hurt me later?
(A)            (E)       
Are you gonna go to town?
(D)
Maybe you should play it safer
(A)            (E)        
You've got me all dressed up tonight
(D)
Springsteen on the radio
(A)            (E)        
You've got me all freaked out tonight
(D)
Somethin' you're tellin' me, what? I don't know

A                E
You don't wanna break me down
D
You don't wanna say goodbye and
A                E
You don't wanna turn around
G                D
You don't wanna make me cry but
A               E
You caught me once
D
Maybe on the flipside I could catch you again
A               E
You caught me once
              G                 D
Maybe on the flipside you could catch me again
A          E      D
[Guitar riff].........Drinks on the patio
A          E      D
[Guitar riff again]

(A)            (E)
Are you gonna tell me now?
(D)
Are you gonna tell me later?
(A)            (E)
Cause if you think that I don't know
(D)
I'm gonna have to say you're crazy
(A)            (E)
I'm getting all dressed up tonight
(D)
Dressed up just to hear you, boy
(A)            (E)
I already know what you got in store
(D)
Why I go, baby, I don't know

[Repeat Chorus]

F#m                     E
So you think you're in charge?
       F#m
Do you?
                   E
Actin' like a big shot
       F#m
I'm sure
                        E
So you think you're in charge?
       F#m
Do you?
                          E
You're actin' like a big shot

[Repeat Chorus]

Istrumental part:
A  E  D
A  E  G  D
A  E  D
A  E  G  D

Outro guitar (first part):
     Q    E   E   S S E  Q        Q    E   E   S S E  Q     
E||----------------------------|---------------------------|
B||----------------------------|---------------------------|
G||---------------6b7r6--------|---------------1h2p1-------|
D||-------7--------------7\----|----------(2)---------2----|
A||--0-------(0)---------------|-------2-------------------|
D||----------------------------|--2------------------------|


  Q    E  E  E E   E   E     Q    E  E  E   E   E   E    
--------------------------|----------------------------||
--------------------------|----------------------------||
--------------------------|----------------------------||
----------0--2s4-------0--|----------0--2s--4-------0--||
-------0----------(0)-----|-------0------------(0)-----||
--0-----------------------|--0-------------------------||

Outro guitar (ending):
     E  E  E  E  E  E  E  E     E  E  E  E  E  E  E  E   
E||--------------------------|--------------------------|
B||--------------------------|--------------------------|
G||--6--6--6--6--6--6--6--6--|--1--1--1--1--1--1--1--1--|
D||--------------------------|--------------------------|
A||--------------------------|--------------------------|
D||--------------------------|--------------------------|


  E  E  E  E  E  E  E  E     E  E  E  E  E  E  E  E    
--------------------------|--------------------------||
--------------------------|--------------------------||
--2--2--2--2--2--2--2--2--|--2--2--2--2--2--2--2--2--||
--------------------------|--------------------------||
--------------------------|--------------------------||
--------------------------|--------------------------||
Duration legend:
Q - Quarter Note
E - Eight Note
S - Sixteenth Note

Tablature Legend:
(n) - ghost note
br - bendRelease
s - slide
h - hammer-on
p - pull-off

Chord shapes (Drop D tuning):
A:           E:           D:           F#m:         G:
X-0-2-2-2-0  2-2-2-1-0-0  0-0-0-2-3-2  4-4-4-2-2-2  5-x-0-0-0-3
comments
print report bad tab
1 comment total.
0 reply
CaliforniaBP wrote on July 18 2014, 11:47 am, edited at 12:47 pm

Chord A is bare 577655 just to know ;) - so in the outro you strum once then 6666666 lol and then E and D , that's how I do it :D

I want to post or [tab]
guest
You may want to rate the tab now too:
select rating
Please do not post tabs as comments. Select "correction" instead!