Oops, an error
Loading. Please wait.

Love bass

4,540 views 36 this week
1 commentread comment
1 2 3 4 5
x 7
add to favorites
×
Save as Personal and add changes to this tab that will be seen only by you. Learn more ›
×
You can save this tab as Personal to edit and correct it or add notes. All changes will be seen only by you. Learn more »
launch autoscroll
font size
0
reset
guitar tuner
edit
Autoscroll
slow
fast
+/-
esc
set tempo
stop
Author
Difficulty
Love by Lana Del Rey
BASS TAB
Standard Tuning


[Intro + Verse 1]
G|------------------0~--0~-------------|
D|----------3~--3~----------1~--1~-----|
A|--1~--1~-----------------------------|  x3
E|-------------------------------------|

G|------------------------------------------------------------------|
D|--3~--3~--1~--1~-----------------1h3~--3~--1~--1~-----------------|
A|------------------1~--1~--1~--1~--------------------1~--1~--1~----|  x1
E|------------------------------------------------------------------|

[Chorus]
G|------------------0~--0~-------------|
D|----------3~--3~----------1~--1~-----|
A|--1~--1~-----------------------------|  x4
E|-------------------------------------|

[Verse 2]
G|------------------0~--0~-------------|
D|----------3~--3~----------1~--1~-----|
A|--1~--1~-----------------------------|  x3
E|-------------------------------------|

G|----------------------------------------------------------|
D|--3~----1~--------------------3~----1~--------------------|
A|--------------1~--1~----1~----------------1~--1~----1~----| x1
E|----------------------------------------------------------|

[Chorus]
G|------------------0~--0~-------------|
D|----------3~--3~----------1~--1~-----|
A|--1~--1~-----------------------------|  x4
E|-------------------------------------|
                                                don't worry baby, baby, baby and its
G|----------------------------------------------------------------|
D|----------------------------------------------------------------| (not sure about
A|----------------------------------------------------------------|  this part here)
E|---1~--1~--1~--1~--1~--1~--1~--1~--1~--1~--1~--1~--1~----1~--1~-|

 enough
G|---------------------------------------|
D|-3~----1~----------1h3~----1~----------|
A|-------------1~------------------1~----|
E|---------------------------------------|

[Chorus]
G|------------------0~--0~-------------|
D|----------3~--3~----------1~--1~-----|
A|--1~--1~-----------------------------|  x4
E|-------------------------------------|

[Outro]
                                                   don't worry baby, baby, baby
G|----------------------------------------------------------------|
D|----------------------------------------------------------------| (not sure about
A|----------------------------------------------------------------|  this part here)
E|---1~--1~--1~--1~--1~--1~--1~--1~--1~--1~--1~--1~--1~----1~--1~-|

************************************

| ~  Vibrato
| h  Hammer-on


************************************

            
            
Suggest correction
Creating personal tab
Creating personal tab
You can edit any tab online and save it as your Personal.

You can edit, replace or remove any tab part or add personal notes – all changes will be seen only by you.

Personal tabs can be accessed anytime from any device, even offline.
Learn more »
comments
print report bad tab
1 comment total.
0 reply
Sarofier 20 Mar 10, 2017 02:08 PM

Thank you so much! I searched for tabs so freaking long, now I found them and they're pretty much on point. :). THX THX THX.

guest
You may want to rate the tab now too:
select rating
Wanna post a correction for this tab? Suggest correction