Oops, an error
Loading. Please wait.

Oh Say Can You See tab

version 1
version 1

Whole song

2,369 views 15 this week
no commentswrite comment
1 2 3 4 5
x 7
add to favorites
×
Save as Personal and add changes to this tab that will be seen only by you. Learn more ›
×
You can save this tab as Personal to edit and correct it or add notes. All changes will be seen only by you. Learn more »
launch autoscroll
font size
0
reset
how to read this tab
guitar tuner
edit
Autoscroll
slow
fast
+/-
esc
set tempo
stop
Author
Difficulty
-------------------------------------------------------------------------------
                            Lana Del Rey-Oh Say Can You See
-------------------------------------------------------------------------------

Here is the guitar part that Lana plays with an electric guitar in the demo version 
of this song, or with an acoustic one on the "Lana Del Ray aka Lizzy Grant" version.


Intro :

e|-------0-----0-----0-----0-----0-----0-------------------------------------|
B|----3-----3-----2-----2-----2-----2-----3---3h4h5--5p4p3--3----------------|
G|---------------------------------------------------------------------------|
D|---------------------------------------------------------------------------|
A|----------------------------2-----2-----0----------------------------------|
E|----3-----3-----2-----2----------------------------------------------------|

Verse :

e|---------------------------------------(0)---------------------------------|
B|------3----3----2----2----2-----2----3------(3)----------------------------|
G|---------------------------------------------------------------------------|
D|---------------------------------------------------------------------------|
A|------------------------2-----2----0---------------------------------------|
E|---3----3----2----2--------------------------------------------------------|


e|---------------------------------------------------------------------------|
B|------3----3----2----2----2-----2----3h4h5--5p4p3--3-----------------------|
G|---------------------------------------------------------------------------|
D|---------------------------------------------------------------------------|
A|------------------------2-----2----0---------------------------------------|
E|---3----3----2----2--------------------------------------------------------|

"Bridge" (nightime is almost ours...) :

e|-----------------------------------------0---------------------------------|
B|--------3----3----3----3----0----0----0-----0------------------------------|
G|---------------------------------------------------------------------------|
D|--------------------------2----0-------------------------------------------|
A|-----2----2----0----0--------------2---------------------------------------|
E|---------------------------------------------------------------------------|


And then play the intro, then verse, then bridge... Till you end the song on the intro. 
Feel free to add some open chords


Lyrics :

Oh, say can you see my stars
The night time is almost ours
To wander through alleys and look at the bars
Night time is almost ours

The headlights from passing cars
They illuminate my face then leave me the dark
The voice of Nirvana says, "Come as you are"
And I will
The night time is almost ours

The sway of the hips and arms
Will cradle you from afar
They swing till you're tired and send you to Mars
Night time is almost ours


************************************

| /   slide up
| \   slide down
| h   hammer-on
| p   pull-off
| ~   vibrato
| +   harmonic
| x   Mute note
| b   Bend
| pb  Pre-bend
| br  Bend release
| pbr Pre-bend release
| brb Bend release bend

************************************

            
            
Suggest correction
Creating personal tab
Creating personal tab
You can edit any tab online and save it as your Personal.

You can edit, replace or remove any tab part or add personal notes – all changes will be seen only by you.

Personal tabs can be accessed anytime from any device, even offline.
Learn more »
comments
print report bad tab
guest
You may want to rate the tab now too:
select rating
Wanna post a correction for this tab? Suggest correction