Oops, an error
Loading. Please wait.

Oh Say Can You See Tab

version 2
version 2

Whole song

31 views 1 this week
no commentswrite comment
1 2 3 4 5
3 more votes to show rating
add to favorites
launch autoscroll
font size
0
reset
how to read this tab
guitar tuner
Autoscroll
slow
fast
+/-
esc
set tempo
stop
Help us to improve Ultimate-Guitar.com Take our survey!
×
Author
Difficulty
novice
About this tab version
This one is very specific. Was this info helpful? Yes No
[Intro]
(1).
e|-------0------0------0------0------0--------0------------------------------|
B|-------3------3------2------2------2--------2-------3h4h5---5p4p3-----3----|
G|---------------------------------------------------------------------------|
D|---------------------------------------------------------------------------|
A|--------------------------------2--------2---------------------------------|
E|----3------3------2------2-----------------------0-------------------------|

(2).
e|--------------------------------------------------0------------------------|
B|------3-----3-------2-----2-------2------2------3-------3------------------|
G|---------------------------------------------------------------------------|
D|---------------------------------------------------------------------------|
A|------------------------------2------2-------0-----------------------------|
E|---3------3-----2-----2----------------------------------------------------|

[Verse] "oh say can you see, my stars. "
(1.)
e|---------------------------------------------------------------------------|
B|------3-------3------2--------2------2------2-------3h4h5---5p4p3-----3----|
G|---------------------------------------------------------------------------|
D|---------------------------------------------------------------------------|
A|---------------------------------2-------2-----0---------------------------|
E|---3-------3-------2------2------------------------------------------------|      

[CHORUS]  "The nighttime is almost ours" 
(3).
e|---------------------------------------------------0-----------------------|
B|-------3-------3-----3------3------0-----0------0-----2--------------------|
G|---------------------------------------------------------------------------|
D|-------------------------------2------0------------------------------------|
A|----2------2------0-----0-------------------2------------------------------|
E|---------------------------------------------------------------------------|

(4). "To wander through alleys,and look at the bars, nighttime is almost ours"
(Play x2) 
e|--------------------------------------------------------0------------------|
B|--------3------3------3-------3------0----0---------0------0---------------|
G|---------------------------------------------------------------------------|
D|--------------------------------2-------0----------------------------------|
A|----2------2-------0------0--------------------2---------------------------|
E|---------------------------------------------------------------------------|

(5).
e|-----------------------------------0---------------------------------------|
B|--------3------3-------------0----------0----------------------------------|
G|---------------------------------------------------------------------------|
D|---------------------------------------------------------------------------|
A|----2------2---------2-----------------------------------------------------|
E|---------------------------------------------------------------------------|

(1). "The headlights from passing cars"
e|---------------------------------------------------------------------------|
B|-------3------3-----2------2-------2------2-------3h4h5h----5p4p3p-----3---|
G|---------------------------------------------------------------------------|
D|---------------------------------------------------------------------------|
A|-------------------------------2------2-------0----------------------------|
E|----3------3-----2-----2---------------------------------------------------|

(2)."They illuminate my face and leave me in the dark"
e|--------------------------------------------------0------------------------|
B|-----3-----3-----2-----2-------2------2--------3-----3---------------------|
G|---------------------------------------------------------------------------|
D|---------------------------------------------------------------------------|
A|----------------------------2-----2--------0-------------------------------|
E|--3-----3-----2------2-----------------------------------------------------|

(4)."The voice of Nirvana says, come as you are"
e|-----------------------------------------------------0---------------------|
B|------3-----3----3------3-----0------0----------0--------0-----------------|
G|---------------------------------------------------------------------------|
D|---------------------------2------0----------------------------------------|
A|--------------------------------------------2------------------------------|
E|---2-----2-----0-----0-----------------------------------------------------|

"Nighttime is almost ours"
e|---------------------------------------------------------0-----------------|
B|------3-------3------3------3-------0-----0--------0----------0------------|
G|---------------------------------------------------------------------------|
D|-------------------------------2-------0-----------------------------------|
A|-----------------------------------------------2---------------------------|
E|---2------2------0------0--------------------------------------------------|

e|-----------------------------------0---------------------------------------|
B|--------3------3-------------0----------0----------------------------------|
G|---------------------------------------------------------------------------|
D|---------------------------------------------------------------------------|
A|----2------2---------2-----------------------------------------------------|
E|---------------------------------------------------------------------------|

"The sway of the hips and arms"
e|---------------------------------------------------------------------------|
B|------3-------3------2--------2------2------2-------3h4h5---5p4p3-----3----|
G|---------------------------------------------------------------------------|
D|---------------------------------------------------------------------------|
A|---------------------------------2-------2-----0---------------------------|
E|---3-------3-------2------2------------------------------------------------|  

"Will cradle you from afar" 
e|---------------------------------------------------0-----------------------|
B|------3-----3-------2-----2-------2------2------3-------3------------------|
G|---------------------------------------------------------------------------|
D|---------------------------------------------------------------------------|
A|------------------------------2------2-------0-----------------------------|
E|---3------3-----2-----2----------------------------------------------------|

"They swing till you're tired and send you to mars" 
e|-------------------------------------------------0-------------------------|
B|-------3-------3-----3------3------0-----0------0-----2--------------------|
G|---------------------------------------------------------------------------|
D|-------------------------------2------0------------------------------------|
A|----2------2------0-----0-------------------2------------------------------|
E|---------------------------------------------------------------------------|  

e|--------------------------------------------------------0------------------|
B|--------3------3------3-------3------0----0---------0------0---------------|
G|---------------------------------------------------------------------------|
D|--------------------------------2-------0----------------------------------|
A|----2------2-------0------0--------------------2---------------------------|
E|---------------------------------------------------------------------------|

e|---------------------------------------------------------------------------|
B|--------3-------3----------------------------------------------------------|
G|---------------------------------------------------------------------------|
D|---------------------------------------------------------------------------|
A|---------------------------------------------------------------------------|
E|----2------2-------0-------------------------------------------------------|

************************************

| h  Hammer-on
| p  Pull-off

************************************
Suggest correction
Give kudos to tab author, rate the tab!
1 2 3 4 5
comments
print report bad tab
guest
You may want to rate the tab now too:
select rating
Wanna post a correction for this tab? Suggest correction