Oops, an error
Loading. Please wait.

Once Upon A Dream tab

version 1
version 1

Whole song

Interactive

1,900 views 18 this week
no commentswrite comment
1 2 3 4 5
1 last vote to show rating
add to favorites
×
Save as Personal and add changes to this tab that will be seen only by you. Learn more ›
×
You can save this tab as Personal to edit and correct it or add notes. All changes will be seen only by you. Learn more »
launch autoscroll
font size
0
reset
how to read this tab
guitar tuner
edit
Autoscroll
slow
fast
+/-
esc
set tempo
stop
Author
Difficulty
-------------------------------------------------------------------------------
                             Once Upon A Dream - Lana Del Rey
-------------------------------------------------------------------------------
Tabbed by: DarthCindy22
E-mail: Not available 

This is the Acoustic Version, please enjoy :3 Play all of this like- twice?


Tuning: Standard
Verse 1
e|---------------------------------------------------------------------------|
B|--------------------9-11-13-10-11------------------------------------------|
G|13-12-13-10-11-13-10-------------------------------------------------------|
D|---------------------------------------------------------------------------|
A|---------------------------------------------------------------------------|
E|---------------------------------------------------------------------------|

Verse 2
e|---------------------------------------------------------------------------|
B|---------------------------------------------------------------------------|
G|---------------------------------------------------------------------------|
D|13-12-11-8-15-13-15-12-11-9--9---------------------------------------------|
A|---------------------------12----------------------------------------------|
E|---------------------------------------------------------------------------|

Verse 3
e|---------------------------------------------------------------------------|
B|---------------------------------------------------------------------------|
G|--------------------------------12-9-10------------------------------------|
D|12-13-14-13-14-11-13-14-11-13-15-------------------------------------------|
A|---------------------------------------------------------------------------|
E|---------------------------------------------------------------------------|

Verse 4- Just so y'all know verse 4&5 are both together but on different verses.
e|---------------------------------------------------------------------------|
B|---------------------------------------------------------------------------|
G|---------------------------------------------------------------------------|
D|11-12-11--14-11-12-13-14-16------------------------------------------------|
A|--------11-----------------------------------------------------------------|
E|---------------------------------------------------------------------------|

Verse 5 (Part 2 of verse 4)
e|---------------------------------------------------------------------------|
B|---------------------------------4-----------------------------------------|
G|----------------------------9-8-7------------------------------------------|
D|13-15-12-13-10-12-13-12-10-9-----------------------------------------------|
A|---------------------------------------------------------------------------|
E|---------------------------------------------------------------------------|

Chorus. (Ahh-ah,Ahh-ah,Ahh-ah-ah.) -Repeat this twice!)
e|---------------------------------------------------------------------------|
B|14-13-----14-13-----14-13--------------------------------------------------|
G|-------------------------12------------------------------------------------|
D|---------------------------------------------------------------------------|
A|---------------------------------------------------------------------------|
E|---------------------------------------------------------------------------|

Verse 6 (Do verse 4 and 5 again basically....)
e|---------------------------------------------------------------------------|
B|---------------------------------------------------------------------------|
G|---------------------------------------------------------------------------|
D|11-12-11--14-11-12-13-14-16------------------------------------------------|
A|--------11-----------------------------------------------------------------|
E|---------------------------------------------------------------------------|

Verse 7 (Part two of verse 6)
e|---------------------------------------------------------------------------|
B|---------------------------------4-----------------------------------------|
G|----------------------------9-8-7------------------------------------------|
D|13-15-12-13-10-12-13-12-10-9-----------------------------------------------|
A|---------------------------------------------------------------------------|
E|---------------------------------------------------------------------------|

Verse 8
e|---------------------------------------------------------------------------|
B|--------------------9-11-13-10-11------------------------------------------|
G|13-12-13-10-11-13-10-------------------------------------------------------|
D|---------------------------------------------------------------------------|
A|---------------------------------------------------------------------------|
E|---------------------------------------------------------------------------|

Verse 9
e|---------------------------------------------------------------------------|
B|13-12-11-8-10-11-8-15-12-11-9--9-------------------------------------------|
G|-----------------------------12--------------------------------------------|
D|---------------------------------------------------------------------------|
A|---------------------------------------------------------------------------|
E|---------------------------------------------------------------------------|

Verse 10
e|---------------------------------------------------------------------------|
B|---------------------------------------------------------------------------|
G|--------------------------12-9-10------------------------------------------|
D|12-13-14-11-13-14-11-13-15-------------------------------------------------|
A|---------------------------------------------------------------------------|
E|---------------------------------------------------------------------------|

Chorus. Repeat Twice like last time.
e|---------------------------------------------------------------------------|
B|14-13----14-13-----14-13---------------------------------------------------|
G|------------------------12-------------------------------------------------|
D|---------------------------------------------------------------------------|
A|---------------------------------------------------------------------------|
E|---------------------------------------------------------------------------|

Verse 11 (Verse 11 and 12 are basically verse 4&5)
e|---------------------------------------------------------------------------|
B|---------------------------------------------------------------------------|
G|---------------------------------------------------------------------------|
D|11-12-11--14-11-12-13-14-16------------------------------------------------|
A|--------11-----------------------------------------------------------------|
E|-------------------------------------------------------------------------

Verse 12
e|---------------------------------------------------------------------------|
B|---------------------------------4-----------------------------------------|
G|----------------------------9-8-7------------------------------------------|
D|13-15-12-13-10-12-13-12-10-9-----------------------------------------------|
A|---------------------------------------------------------------------------|
E|---------------------------------------------------------------------------|

Play the whole song from verse 1 to verse 5 again.Then your done!
Enjoy, all guitar fans! I'll make more tabs soon :)



************************************

| /   slide up
| \   slide down
| h   hammer-on
| p   pull-off
| ~   vibrato
| +   harmonic
| x   Mute note
| b   Bend
| pb  Pre-bend
| br  Bend release
| pbr Pre-bend release
| brb Bend release bend

************************************

            
            
Suggest correction
Creating personal tab
Creating personal tab
You can edit any tab online and save it as your Personal.

You can edit, replace or remove any tab part or add personal notes – all changes will be seen only by you.

Personal tabs can be accessed anytime from any device, even offline.
Learn more »
Give kudos to tab author, rate the tab!
1 2 3 4 5
comments
print report bad tab
guest
You may want to rate the tab now too:
select rating
Wanna post a correction for this tab? Suggest correction