Oops, an error
Loading. Please wait.

Out With A Bang tab

343 views 6 this week
no commentswrite comment
1 2 3 4 5
3 more votes to show rating
add to favorites
×
Save as Personal and add changes to this tab that will be seen only by you. Learn more ›
×
You can save this tab as Personal to edit and correct it or add notes. All changes will be seen only by you. Learn more »
launch autoscroll
font size
0
reset
how to read this tab
guitar tuner
edit
Autoscroll
slow
fast
+/-
esc
set tempo
stop
Author
-------------------------------------------------------------------------------
                             Out With A Bang - Lana Del Rey
-------------------------------------------------------------------------------
Tabbed by: Adrien G
E-mail: adriengillespie2000@gmail.com

Hopefully you'll find this tab super easy and accurate.
This song is amazing And great for beginners XD

Tuning: Standard :)

I recommend that you know chord shapes E C D Am & A 
If you don't that's fine, just make sure you listen to the song first


     Chord E.                          Chord C.
e|---------------------------------------------------------------------------|
B|---------------------------------------------------------------------------|
G|-------1-------1-------1-------1---------0------0-------0-------0----------|  x2
D|-----2---2---2---2---2---2---2---2-----2--2---2---2---2---2---2---2--------|
A|---2-------2-------2-------2---------3------3-------3-------3--------------|
E|---------------------------------------------------------------------------|
     Chord D.          Chord Am.  
e|-------2-------2---------0-------0-----------------------------------------|
B|---------------------------------------------------------------------------|
G|-----2---2---2---2-----2---2---2---2---------------------------------------|
D|---0-------0---------2-------2---------------------------------------------|
A|---------------------------------------------------------------------------|
E|---------------------------------------------------------------------------|
             'Little bits and pieces, falling to the corners
                Box of broken laces, lined up in an order
            I'll do what you tell me, we can have it your way 
             I'll tell you the future, you tell me your story


     Chord C.          Chord A. 
e|---------------------------------------------------------------------------|
B|-------------------------2-------2-----------------------------------------|
G|-------0-------0-------2---2---2---2---2-----------------------------------|  x4
D|-----2---2---2---2---2-------2-------2-------------------------------------|
A|---3-------3---------------------------------------------------------------|
E|---------------------------------------------------------------------------|
                          I'm going out with a bang 
                          I'm going out with a bang
                          I'm going out with a bang 
                          I'm going out with a bang


   Chord E.                          Chord C.
e|---------------------------------------------------------------------------|
B|---------------------------------------------------------------------------|
G|-------1-------1-------1-------1---------0------0-------0-------0----------|  x2
D|-----2---2---2---2---2---2---2---2-----2--2---2---2---2---2---2---2--------|
A|---2-------2-------2-------2---------3------3-------3-------3--------------|
E|---------------------------------------------------------------------------|
     Chord D.          Chord Am.  
e|-------2-------2---------0-------0-----------------------------------------|
B|---------------------------------------------------------------------------|
G|-----2---2---2---2-----2---2---2---2---------------------------------------|
D|---0-------0---------2-------2---------------------------------------------|
A|---------------------------------------------------------------------------|
E|---------------------------------------------------------------------------|
           Smiles from the stranger, seem to make your day when  
            You were just about to go and throw your towel in
              Lately I've been thinking about making changes 
             It's been on my mind for sometime and I'm anxious 


  Chord C.          Chord A. 
e|---------------------------------------------------------------------------|
B|-------------------------2-------2-----------------------------------------|
G|-------0-------0-------2---2---2---2---2-----------------------------------|  x4
D|-----2---2---2---2---2-------2-------2-------------------------------------|
A|---3-------3---------------------------------------------------------------|
E|---------------------------------------------------------------------------|
                          I'm going out with a bang 
                          I'm going out with a bang
                          I'm going out with a bang 
                          I'm going out with a bang


    Chord E.                          Chord C.
e|---------------------------------------------------------------------------|
B|---------------------------------------------------------------------------|
G|-------1-------1-------1-------1---------0------0-------0-------0----------|  x2
D|-----2---2---2---2---2---2---2---2-----2--2---2---2---2---2---2---2--------|
A|---2-------2-------2-------2---------3------3-------3-------3--------------|
E|---------------------------------------------------------------------------|
     Chord D.          Chord Am.  
e|-------2-------2---------0-------0-----------------------------------------|
B|---------------------------------------------------------------------------|
G|-----2---2---2---2-----2---2---2---2---------------------------------------|
D|---0-------0---------2-------2---------------------------------------------|
A|---------------------------------------------------------------------------|
E|---------------------------------------------------------------------------|
                Scowling like the sunshine, set on Sarasota
                     Happy like a twister over Oklahoma
                    Clear as Penny Mason lying in a coma
                  This is our feeling, all my hurt is over


  Chord C.          Chord A. 
e|---------------------------------------------------------------------------|
B|-------------------------2-------2-----------------------------------------|
G|-------0-------0-------2---2---2---2---2-----------------------------------|  x4
D|-----2---2---2---2---2-------2-------2-------------------------------------|
A|---3-------3---------------------------------------------------------------|
E|---------------------------------------------------------------------------|
                          I'm going out with a bang 
                          I'm going out with a bang
                          I'm going out with a bang 
                          I'm going out with a bang


  Chord E.                          Chord C.
e|---------------------------------------------------------------------------|
B|---------------------------------------------------------------------------|
G|-------1-------1-------1-------1---------0------0-------0-------0----------|  x2
D|-----2---2---2---2---2---2---2---2-----2--2---2---2---2---2---2---2--------|
A|---2-------2-------2-------2---------3------3-------3-------3--------------|
E|---------------------------------------------------------------------------|
     Chord D.          Chord Am.  
e|-------2-------2---------0-------0-----------------------------------------|
B|---------------------------------------------------------------------------|
G|-----2---2---2---2-----2---2---2---2---------------------------------------|
D|---0-------0---------2-------2---------------------------------------------|
A|---------------------------------------------------------------------------|
E|---------------------------------------------------------------------------|
                Meet me in the morning, wrap your arms around me
               Tell me that it's over, now that you have found me
                  Walk me to the river, see the willow bowing
                  Carry me into the water, now we're drowning


  Chord C.          Chord A. 
e|---------------------------------------------------------------------------|
B|-------------------------2-------2-----------------------------------------|
G|-------0-------0-------2---2---2---2---2-----------------------------------|   Carry on for
D|-----2---2---2---2---2-------2-------2-------------------------------------| remainder of song
A|---3-------3---------------------------------------------------------------|      
E|---------------------------------------------------------------------------|
                          I'm going out with a bang 
                          I'm going out with a bang
                          I'm going out with a bang 
                          I'm going out with a bang
                         We're going to go home again'


The overall all song consists of verses and the chorus, so you only need to learn up to the
first 'I'm going out with a bang' and then just the rest of the lyrics!

Enjoy ;P

            
            
Suggest correction
Creating personal tab
Creating personal tab
You can edit any tab online and save it as your Personal.

You can edit, replace or remove any tab part or add personal notes – all changes will be seen only by you.

Personal tabs can be accessed anytime from any device, even offline.
Learn more »
Give kudos to tab author, rate the tab!
1 2 3 4 5
comments
print report bad tab
guest
You may want to rate the tab now too:
select rating
Wanna post a correction for this tab? Suggest correction