Oops, an error
Loading. Please wait.

Ride Bass Tab

4,743 views 15 this week
no commentswrite comment
1 2 3 4 5
excellent!
x 4
add to favorites
launch autoscroll
font size
0
reset
guitar tuner
Tab Pro tools
  • play this tab
  • loop segment
  • change instrument
  • show fretboard
  • metronome
×
Best way to learn
"Ride"
Autoscroll
slow
fast
+/-
esc
set tempo
stop
Contributor
Intro

G/--------2----0----7----7--------------|
D/--3-------------------------2----3----|
A/--------------------------------------|
E/--------------------------------------|

Verse 1 (I've been out on that open road...)
Verse 2 (Dying young and playing hard...)
G/-------------------------------|
D/------------3------------------|
A/-3---------------3-------------|
E/-------------------------------|

Pre- chorus (Don't break me down...)

G/-------------------2222222222222222-----------------00000000-3/5-7-5-7-|
D/--3333333333333333------------------3333333333333333-------------------|
A/-----------------------------------------------------------------------|
E/-----------------------------------------------------------------------|

Chorus (I hear the birds on the summer breeze...)

G/---------2-2-2-2--0-0-0-0---------------------------------|
D/-3-3-3-3------------------0-0-0-0-0-0-0-0-2-2-2-2-3-3-3-3-|
A/----------------------------------------------------------|
E/----------------------------------------------------------|

Chorus variation 1

G/---------2-2-2-2--0-0-0-0---------------------------------3/5--7---|
D/-3-3-3-3------------------0-0-0-0-0-0-0-0-2-2-2-2-3-3-3-3----------|
A/-------------------------------------------------------------------|
E/-------------------------------------------------------------------|


Chorus variation 2

G/---------2-2-2-2-0-0-------------------------------------|
D/-3-3-3-3-----------------0-0-0-0-0-0-0-0-2-2-2-2-3-3-3-3-|
A/---------------------3-4---------------------------------|
E/---------------------------------------------------------|



Chorus variation 3 (I'm tired of feeling like I'm f**king crazy...)

G/---------2-2-2-2-0-0-0-0------------------------------------|
D/-3-3-3-3-----------------0-0-0-0-12-12-12-12-14-14-14-14-15-|
A/------------------------------------------------------------|
E/------------------------------------------------------------|

These lines are repeating throughout the whole song. I uploaded it because I couldn't 
find any BASS tab for this song.
That's my first tab here, I thing it's quite accurate.
ENJOY!
comments
print report bad tab
I want to post or [tab]
guest
You may want to rate the tab now too:
select rating
Please do not post tabs as comments. Select "correction" instead!