Oops, an error
Loading. Please wait.

Video Games Bass Tab

version 1
version 1

Intro

Interactive

5,656 views 12 this week
no commentswrite comment
1 2 3 4 5
x 4
add to favorites
launch autoscroll
font size
0
reset
guitar tuner
Autoscroll
slow
fast
+/-
esc
set tempo
stop
Help us to improve Ultimate-Guitar.com Take our survey!
×
Difficulty
novice
G|----------------------------------------------------------------------------|
D|----------------------------------------------------------------------------|
A|--2---5---2---5----------2---5---2---5---------------2---5---2---5----------|
E|------------------2---3-------------------2---3---2-------------------2---3-|


G|-------------------------------|
D|-------------------------------|
A|---2---5---2---5-----------0---|
E|-------------------2---3-------|


G|-------------------------------------------------------------|
D|-------------------------------------------------------------|
A|---2---5---2---5-----------2---5---2---5---------------------|
E|-------------------2---3-------------------2---3------2---3--|
Suggest correction
comments
print report bad tab
guest
You may want to rate the tab now too:
select rating
Wanna post a correction for this tab? Suggest correction