Oops, an error
Loading. Please wait.

Yayo Tab

version 6
version 6

Whole song

76 views 6 this week
no commentswrite comment
1 2 3 4 5
3 more votes to show rating
add to favorites
launch autoscroll
font size
0
reset
how to read this tab
guitar tuner
Autoscroll
slow
fast
+/-
esc
set tempo
stop
Help us to improve Ultimate-Guitar.com Take our survey!
×
Author
Difficulty
novice
About this tab version
YAYO by Lana Del Rey __ From the live (Moscow, July 10, 2016). Was this info helpful? Yes No
YAYO by Lana Del Rey __ From the live (Moscow, July 10, 2016).


[Intro]

e|--10---10---10---10---7---7---5---5---3---3---7-7-7-7---7-7-7-7---7---7---7---7|
B|----------------------0---0-------------------0---------0---------0---0---0---0|
G|------------------------------4---4--------------------------------------------|
D|---9----9----9----9-------------------2---2------------------------------------|
A|10---10---9----9----7---7---5---5---3---3---7---------6---------7---7---6---6--|
E|-------------------------------------------------------------------------------|


[Verse]

e|--10---10---10---10---7---7---5---5---3---3---7---7---7---7---7---7---7---7|
B|----------------------0---0-------------------0---0---0---0---0---0---0---0|
G|------------------------------4---4----------------------------------------|  
D|---9----9----9----9-------------------2---2--------------------------------|
A|10---10---9----9----7---7---5---5---3---3---7---7---6---6---7---7---6---6--|
E|---------------------------------------------------------------------------|

e|--10---10---10---10---7---7---5---5---3---3---7---7---7---7---7---7---7---7|
B|----------------------0---0-------------------0---0---0---0---0---0---0---0|
G|------------------------------4---4----------------------------------------|  
D|---9----9----9----9-------------------2---2--------------------------------|
A|10---10---9----9----7---7---5---5---3---3---7---7---6---6---7---7---6---6--|
E|---------------------------------------------------------------------------|

e|--7---7---7---7|
B|--0---0---0---0|
G|---------------|  
D|---------------|
A|7---7---6---6--|
E|---------------|

[Chorus]

e|--7---7---5---5---7---7----5---5---7---7---5---4---7---7---5---5---0---2---7|
B|--0---0-----------0---0------------0---0-----------0---0---------------0---0|
G|----------4---4------------4---4-----------4---4-----------4---4------------|
D|----------------------------------------------------------------------------|
A|7---6---5---4---7---6---5----4---7---6---5---5---7---6---5---4-----0-2---7--|
E|-----------------------------------------------------------------0----------|

e|--7---0---2---7---7---0---2---7---7---0---2---7---7--|
B|--0-------0---0---0-------0---0---0-------0---0---0--|
G|-----------------------------------------------------|
D|-----------------------------------------------------|
A|7-----0-2---7---7-----0-2---7---7-----0-2---7---7----|
E|----0---------------0---------------0----------------|


[Outro]

e|--10---10---10---10---7---7---5---5---3---3---7---7---7---7---7---7---7---7|
B|----------------------0---0-------------------0---0---0---0---0---0---0---0|
G|------------------------------4---4----------------------------------------|  
D|---9----9----9----9-------------------2---2--------------------------------|
A|10---10---9----9----7---7---5---5---3---3---7---7---6---6---7---7---6---6--|
E|---------------------------------------------------------------------------|

e|--7---7---7---7---7---7---5---5---7---7----5---5---7---7---5---4---7---7---5|
B|--0---0---0---0---0---0-----------0---0------------0---0-----------0---0----|
G|--------------------------4---4------------4---4-----------4---4-----------4|
D|----------------------------------------------------------------------------|
A|7---7---6---6---7---6---5---4---7---6---5----4---7---6---5---5---7---6---5--|
E|----------------------------------------------------------------------------|

e|--5----0----2---7---7---0---2---7---7---0---2---7---7---0---2---7-----|
B|------------0---0---0-------0---0---0-------0---0---0-------0---0-----|
G|--4-------------------------------------------------------------------|
D|----------------------------------------------------------------------|
A|4------0-2----7---7-----0-2---7---7-----0-2---7---7-----0-2---7---7---|
E|----0-----------------0---------------0---------------0---------------|
Suggest correction
Give kudos to tab author, rate the tab!
1 2 3 4 5
comments
print report bad tab
guest
You may want to rate the tab now too:
select rating
Wanna post a correction for this tab? Suggest correction