Oops, an error
Loading. Please wait.

Young And Beautiful Tab

version 1
version 1

Whole song

Video

8,466 views 60 this week
1 commentread comment
1 2 3 4 5
excellent!
x 9
add to favorites
launch autoscroll
font size
0
reset
how to read this tab
guitar tuner
Autoscroll
slow
fast
+/-
esc
set tempo
stop
Help us to improve Ultimate-Guitar.com Take our survey!
×
Author
Difficulty
novice
-------------------------------------------------------------------------------
                             Young and Beautiful - Lana Del Rey
-------------------------------------------------------------------------------
Tabbed by: Aaron
E-mail:

Tuning: Standard

All I really did was map out Lana's vocal notes onto a fretboard.

First tab, any feedback appreciated :)

h - hammer-on
p - pull-off
/ - Maintains the tempo


[VERSE]

I've seen the world, done it all, had my cake now   
e|---------------------------------------------------------------------------|
B|---------------------------------------------------------------------------|
G|---------------------------------------------------------------------------|
D|---------------------------------------2-/---------------------------------|
A|-2-2-/-4-4-/-/-/-/-2-/-4-4-/-/-/-/-2-/-----4-/-/-/-2-----------------------|
E|---------------------------------------------------------------------------|

  Diamonds,       brilliant,    and Bel Air    now
e|---------------------------------------------------------------------------|
B|---------------------------------------------------------------------------|
G|---------------------------------------------------------------------------|
D|--------------------------------------2-/----------------------------------|
A|--2-/-4-4-/-/-/-/-2-/-4-4-/-/-/-/-2-/-----4-/-/-/--2-----------------------|
E|---------------------------------------------------------------------------|

 Hot summer nights,     mid- July,     when you and I wee forever wild
e|---------------------------------------------------------------------------|
B|---------------------------------------------------------------------------|
G|--------------------------------------------------------0------------------|
D|----------------------------------------------4-/-/-2-2---4-/-/-4p2p0------|
A|------------0-2-------------0-2-------0-0-0-/------------------------------|
E|----0-/-2-/-----/-/-/-/-2-/-----/-/-/--------------------------------------|

  The crazy days,     city lights, the way you'd play with me like a child
e|---------------------------------------------------------------------------|
B|---------------------------------------------------------------------------|
G|--------------------------------------------------------0------------------|
D|----------------------------------------------4-/-/-2-2---4-/-/-4p2p0------|
A|------------0-2-------------0-2-------0-0-0-/------------------------------|
E|----/-/-2-/-----/-/-/-/-2-/-----/-/-/--------------------------------------|

[CHORUS]

Will you still love me, when I'm no longer young and beautiful?
e|---------------------------------------------------------------------------|
B|---------------------------------------------------------------------------|
G|---------------------------------------------------------------------------|
D|-2-0-/-2-0-/-0-/-2-0-/-2-0-/-0-/-2p0-/---2-2-/-2-p-0-----------------------|
A|---------------------------------------2-----------------------------------|
E|---------------------------------------------------------------------------|

Will you still love me, when I've got nothing but my aching soul?
e|---------------------------------------------------------------------------|
B|---------------------------------------------------------------------------|
G|---------------------------------------------------------------------------|
D|-2-0-/-2-0-/-0-/-2-0-/-2-0-/-0-/-2p0-/---2-2-/-2-p-0-----------------------|
A|---------------------------------------2-----------------------------------|
E|---------------------------------------------------------------------------|

I know you will,    I know you will, I know that you will
e|---------------------------------------------------------------------------|
B|---------------------------------------------------------------------------|
G|---------------------------------------------------------------------------|
D|-4-2-/-2-2-p-0-/-4-2-/-2-2-p-0-/-4-2-2-0-2-h-4-/-/-2h4p2p0-----------------|
A|---------------------------------------------------------------------------|
E|---------------------------------------------------------------------------|

Will you still love me when I'm no longer beautiful?
e|---------------------------------------------------------------------------|
B|---------------------------------------------------------------------------|
G|---------------------------------------------------------------------------|
D|-4-2-/-2-2-p-0-/-4-2-/-2-2-p-0-/-4-2-/-2-/-2---p---0-----------------------|
A|---------------------------------------------------------------------------|
E|---------------------------------------------------------------------------|

[Repeat Verse]
[Repeat Chorus]

[BRIDGE]

Dear Lord, when I get to heaven, Please let me bring my man
e|---------------------------------------------------------------------------|
B|---------------------------------------------------------------------------|
G|---------------------------------------------------------------------------|
D|-------------------------------------------------4-4-----------------------|
A|-------------2h4-2p0-----------------2-/-2-/-2-/---------------------------|
E|-2h5-7-/-/-/---------2h5-/-/-/-/-2h5---------------------------------------|

When he comes, tell me that you'll let him in, Father tell me if you can
e|---------------------------------------------------------------------------|
B|---------------------------------------------------------------------------|
G|---------------------------------------------------------------------------|
D|-------------------------------------------------4-4-----------------------|
A|-------------2h4-2p0-----------------2-/-2-/-2-/---------------------------|
E|-2h5-7-/-/-/---------2p0-0-/-/-/-2h5---------------------------------------|

Oh that grace, oh that body, Oh that face makes me wanna party
e|---------------------------------------------------------------------------|
B|---------------------------------------------------------------------------|
G|-2---------------2---------------2-----------------------------------------|
D|---/-4-2-p-0-/-/---/-4-2p0-/-/-/---/-4-2-p-0-/-2-2-2-2-2-2p0---------------|
A|---------------------------------------------------------------------------|
E|---------------------------------------------------------------------------|

He's my sun, he makes me shine, like diamonds
e|---------------------------------------------------------------------------|
B|---------------------------------------------------------------------------|
G|---------------------------------------------------------------------------|
D|-2-/-2-/-2-p-0-/-4-2-/-2-2-p-0-/-4-2-/-2-/-2-p-0---------------------------|
A|---------------------------------------------------------------------------|
E|---------------------------------------------------------------------------|

[Repeat Chorus]

Will you still love me when I'm no longer beautiful?
e|---------------------------------------------------------------------------|
B|---------------------------------------------------------------------------|
G|---------------------------------------------------------------------------|
D|-4-2-/-2-2-p-0-/-4-2-/-2-2-p-0-/-4-2-/-2-2-----p-----0---------------------|
A|---------------------------------------------------------------------------|
E|---------------------------------------------------------------------------|

Will you still love me when I'm not young and beautiful?
e|---------------------------------------------------------------------------|
B|---------------------------------------------------------------------------|
G|-2-2-/-----------2-2-2-/---------------------------------------------------|
D|-------2-2-/-0-/---------2-/-/-2-2-2-/-2p0---------------------------------|
A|---------------------------------------------------------------------------|
E|---------------------------------------------------------------------------|


Suggest correction
comments
print report bad tab
1 comment total.
0 reply
TobinXD 10 wrote on April 26 2015, 12:13 pm

fantastic, and really easy, thank you :D

guest
You may want to rate the tab now too:
select rating
Please do not post tabs as comments. Select "correction" instead!