Oops, an error
Loading. Please wait.

Coffee Shop Tab

version 2
version 2

Intro

72,245 views 45 this week
9 commentsread comments
1 2 3 4 5
accurate
x 7
add to favorites
launch autoscroll
font size
0
reset
how to read this tab
guitar tuner
Tab Pro tools
  • play this tab
  • loop segment
  • change instrument
  • show fretboard
  • metronome
Autoscroll
slow
fast
+/-
esc
set tempo
stop
Contributor
Here is the complete updated version. This should help you
with whatever you need to figure out.

Standard Tuning (song in key of E)
Chords
   E   A   B   F#m G#m
e|-----x---x---x----x--|
B|-0---0---0---0----0--|
G|-1---6---8---2----4--|
D|-2---7---9---4----6--|
A|-2---7---9---4----6--|
E|-0---5---7---2----4--|

Lead 1
e|-0----2--------------------------------------|
B|-----------4----5----2----4----0-------------|
G|------------------------------------2----1---| (Note: I add the E bass
D|---------------------------------------------|  to sound full. Optional)
A|---------------------------------------------|
E|-0----0----0----0----0----0----0----0----0---|

Lead 2
e|-0----2--------------------------------------------2-----0-------------|
B|-----------4----5----2----4----0------------------------------0-----1--|
G|------------------------------------2----1----4------------------------|
D|-----------------------------------------------------------------------|
A|-----------------------------------------------------------------------|
E|-0----0----0----0----0----0----0----0----0----0----0-----0----0-----0--|


Pattern for chords
e|-----------------------------------------------|
B|-----------------------------------------------|
G|-1-----------1-----------1-----------1---------|
D|-------2-----------2-----------2----------2----|
A|----2-----2-----2-----2-----2-----2----2-----2-|
E|-0-----------0-----------0-----------0---------|

E                                            (Lead 1)
I think that possibly, maybe I'm falling for you.
E                                                     (Lead 1)
Yes there's a chance that I've fallen quite hard over you.
A
I've seen the path that your eyes wander down, I want to come too.
E                      B                     E
I think that possibly, maybe I'm falling for you

E   B   E

   A
No one understands me, quite like you do,
                                     (B)
Through all of the shadowy corners of me.

F#m          G#m               A
I never knew just what it was about this old coffee shop I love so much.
F#m               G#m            A
All of the while, I never knew.
F#m          G#m               A
I never knew just what it was about this old coffee shop I love so much.
F#m               G#m            A
All of the while, I never knew.

E (with lead 1 then lead 2)

E                                            (Lead 1)
I think that possibly, maybe I'm falling for you.
E                                                     (Lead 1)
Yes there's a chance that I've fallen quite hard over you.
A
I’ve seen the waters   that make your-eyes shine   now I’m shining too
  E                      B                      E          
because, oh because I’ve fallen quite hard over you

   A
if I didn’t know you, I’d rather not know
                                       (B)
if I couldn’t have you, I'd rather be alone

F#m          G#m               A
I never knew just what it was about this old coffee shop I love so much.
F#m               G#m            A
All of the while, I never knew.
F#m          G#m               A
I never knew just what it was about this old coffee shop I love so much.
F#m               G#m            A
All of the while, I never knew.
F#m          G#m     A            B          E (Lead 2 x 4)
all of the while     all of the while it was you



comments
print report bad tab
9 comments total. Showing first comments.
0 reply
phlikone wrote on December 7 2007, 08:11 pm

P.S. After I posted this tab I just saw that an unregistered tabber has posted the intro as well. I was pretty
shocked...I got it note for note just different strings. I like his intro because it's easier to play. Hope everyone
finds this useful.

0 reply
dave_baker wrote on December 8 2007, 06:02 pm

e---------------------2-0------|
B-5-7-4-5-2-4-0-----0----------|
G---------------2-1-------2----|
D-----------------
-------------|
A------------------------------|
E------------------------------| lead towards end of song

0 reply
dave_baker wrote on December 8 2007, 06:08 pm

e---------------------2---0----|
B-5-7-4-5-2-4-0-----0---0------|
G---------------2-1------------|
D-----------------
-------------|
A------------------------------|
E------------------------------| last one

I want to post or [tab]
guest
You may want to rate the tab now too:
select rating
Please do not post tabs as comments. Select "correction" instead!