Oops, an error
Loading. Please wait.

Falling In Love At A Coffee Shop Chords

version 8
version 8

Whole song

Interactive

13 views 3 this week
no commentswrite comment
1 2 3 4 5
2 more votes to show rating
add to favorites
launch autoscroll
font size
0
reset
transpose
0
reset
display chords
guitar tuner
Autoscroll
slow
fast
+/-
esc
set tempo
stop
Help us to improve Ultimate-Guitar.com Take our survey!
×
Author
Tuning
E A D G B E
About this tab version
It has a different intro, besides some chords are different from the other versions and some are omited. Was this info helpful? Yes No
[Intro]

          E            E             A
e|---------------------------------------------------------------------------|
B|----5---7----4---5----2----4-----------------------------------------------|
G|-------------------------------4----2---1----------------------------------|
D|---------------------------------------------------------------------------|
A|---------------------------------------------------------------------------|
E|---------------------------------------------------------------------------|
          E            E             A
e|---------------------------------------------------------------------------|
B|----5---7----4---5----2----4-----------------------------------------------|
G|-------------------------------4----2---1----------------------------------|
D|---------------------------------------------------------------------------|
A|---------------------------------------------------------------------------|
E|---------------------------------------------------------------------------|

[Verse 1]

E
I think that possibly
A                    E
Maybe I'm falling for you
E                           A                        E
Yes, there's a chance that I've fallen quite hard over you
F#m                           A
I've seen the paths that your eyes wander down,
F#m              A 
I wanna come too
E 
I think that possibly,
A                    E
maybe I'm falling for you

F#m
No one understands me 
  A
quite like you do
F#m                         A
Through all of the shadowy corners of me


[Chorus]

F#m           A
I never knew just what it was
E
About this old coffee shop 

I love so much
F#m              A
All of the while I never knew

F#m           A  
I never knew just what it was
E
About this old coffee shop 

I love so much
F#m               A
All of the while I never knew


          E            E             A
e|---------------------------------------------------------------------------|
B|----5---7----4---5----2----4-----------------------------------------------|
G|-------------------------------4----2---1----------------------------------|
D|---------------------------------------------------------------------------|
A|---------------------------------------------------------------------------|
E|---------------------------------------------------------------------------|
          E            E             A
e|---------------------------------------------------------------------------|
B|----5---7----4---5----2----4-----------------------------------------------|
G|-------------------------------4----2---1----------------------------------|
D|---------------------------------------------------------------------------|
A|---------------------------------------------------------------------------|
E|---------------------------------------------------------------------------|


[Verse 2]

E
I think that possibly
A                   E
maybe I'm falling for you
E                           A                         E
Yes, there's a chance that I've fallen quite hard over you

F#m                    A
I've seen the waters that make your eyes shine, 
F#m                  A
now I'm shining too

E
Because, oh, because 
A                         E
I've fallen quite hard over you

F#m
If I didn't know you,
A 
I'd rather not know
F#m
If I couldn't have you,
A
I'd rather be alone


[Chorus]

F#m          A
I never knew just what it was
E
About this old coffee shop 

I love so much
F#m               A
All of the while I never knew

F#m          A
I never knew just what it was
E
About this old coffee shop I love so much
F#m
All of the while 
A
I never knew
F#m         A      F#m         A              E
All of the while, all of the while.... it was you


          E            E             A
e|---------------------------------------------------------------------------|
B|----5---7----4---5----2----4-----------------------------------------------|
G|-------------------------------4----2---1----------------------------------|
D|---------------------------------------------------------------------------|
A|---------------------------------------------------------------------------|
E|---------------------------------------------------------------------------|
          E            E             A
e|---------------------------------------------------------------------------|
B|----5---7----4---5----2----4-----------------------------------------------|
G|-------------------------------4----2---1----------------------------------|
D|---------------------------------------------------------------------------|
A|---------------------------------------------------------------------------|
E|---------------------------------------------------------------------------|
Suggest correction
Give kudos to tab author, rate the tab!
1 2 3 4 5
comments
print report bad tab
guest
You may want to rate the tab now too:
select rating
Wanna post a correction for this tab? Suggest correction