Oops, an error
Loading. Please wait.

Yea Babe No Way Tab

version 1
version 1

Whole song

by Lany
370 views 18 this week
no commentswrite comment
1 2 3 4 5
x 3
add to favorites
launch autoscroll
font size
0
reset
how to read this tab
guitar tuner
Autoscroll
slow
fast
+/-
esc
set tempo
stop
Help us to improve Ultimate-Guitar.com Take our survey!
×
Author
Difficulty
novice
yea, babe, no way by LANY
Tabbed by: beachfossils
Tuning: Standard EADGBe


[Verse A]

E|------------------------------------------|
B|------------------------------------------|
G|--2h5--x--2h5--x--2h5--x--2h5--x--2h5--x--|
D|------------------------------------------|
A|------------------------------------------|
E|------------------------------------------|(x8)


[Chorus A]

E|-------------------------------------------------------------------------|
B|-------------------------------------------------------------------------|
G|-----------------5--5-----------------7--7-----------------5--5--5--7p5--|
D|--5--5--7--7--7--------5--5--7--7--7--------5--5--7--7--7----------------|
A|-------------------------------------------------------------------------|
E|-------------------------------------------------------------------------|(x2)


[Verse B]

Guitar 1:
E|-------|
B|--10v--|
G|-------|
D|-------|
A|-------|
E|-------|

E|------------------------------------------|
B|------------------------------------------|
G|--2h5--x--2h5--x--2h5--x--2h5--x--2h5--x--|
D|------------------------------------------|
A|------------------------------------------|
E|------------------------------------------|(x8)


Guitar 2:
E|-----------|
B|-----------|
G|--7h9p7h9--|
D|-----------|
A|-----------|
E|-----------|


[Chorus B]

E|-------------------------------------------------------------------------|
B|-------------------------------------------------------------------------|
G|-----------------5--5-----------------7--7-----------------5--5--5--7p5--|
D|--5--5--7--7--7--------5--5--7--7--7--------5--5--7--7--7----------------|
A|-------------------------------------------------------------------------|
E|-------------------------------------------------------------------------|(x2)


[Solo]

E|-----------------------------------------|
B|-----------------------------------------|
G|--10--9--9h10--12----9h10--12--10--9-----|
D|--------------------------------------7--|
A|-----------------------------------------|
E|-----------------------------------------|(x2)


[Chorus C]

E|-------------------------------------------------------------------------|
B|-------------------------------------------------------------------------|
G|-----------------5--5-----------------7--7-----------------5--5--5--7p5--|
D|--5--5--7--7--7--------5--5--7--7--7--------5--5--7--7--7----------------|
A|-------------------------------------------------------------------------|
E|-------------------------------------------------------------------------|(x4)


[Outro]

Guitar 2:
E|---------------|
B|---------------|
G|--14v--12------|
D|-----------10--|
A|---------------|
E|---------------|


************************************

| x  Dead note
| h  Hammer-on
| p  Pull-off

************************************
Suggest correction
Give kudos to tab author, rate the tab!
1 2 3 4 5
comments
print report bad tab
guest
You may want to rate the tab now too:
select rating
Wanna post a correction for this tab? Suggest correction