Oops, an error
Loading. Please wait.

Stay Away bass

version 1
version 1

Whole song

Interactive

12,019 views 21 this week
no commentswrite comment
1 2 3 4 5
1 last vote to show rating
add to favorites
×
Save as Personal and add changes to this tab that will be seen only by you. Learn more ›
×
You can save this tab as Personal to edit and correct it or add notes. All changes will be seen only by you. Learn more »
launch autoscroll
font size
0
reset
guitar tuner
edit
Autoscroll
slow
fast
+/-
esc
set tempo
stop
Author
Difficulty
Song: "Stay Away"
Artist: L'Arc~en~Ciel
Album: Dune
Composer(s): Hyde and Tetsu
Tuning: Standard
Time Signature: 4/4
BPM: 140
Tabbed By: Aaron J

Key:
- /  slide up
- \  slide down
- w  whole note
- h  half note
- q  quarter note
- e  eigth note
- s  sixteenth note
- [ ].  dotted note 

* 14, 17, 19, etc. are NOT 1's and 4's and 9's.  Be smart, people, figure it out.



  w                w
G|0---------------|----------------|
D|0---------------|----------------| *Let the strings ring through both
A|0---------------|----------------|  of the measures.
E|0---------------|----------------|
  1e&a2e&a3e&a4e&a 1e&a2e&a3e&a4e&a

  e e e e e e e e  e e e e e q      e e e e e e e e  e e e q   e e e
G|1214141214141214|141214141714----|----------------|------2---2-----|
D|----------------|----------------|----------------|------------2---|
A|----------------|---------------\|0-0-0-0-0-0-0-0-|0-0-0---------0-|
E|----------------|----------------|----------------|----------------|
  1e&a2e&a3e&a4e&a 1e&a2e&a3e&a4e&a 1e&a2e&a3e&a4e&a 1e&a2e&a3e&a4e&a

  e e e e e e e e  e e e e e e e e  e e e e e e e e  e e e e e e e e  
G|----------------|----------------|----------------|----------------|
D|----0---2---0---|--0---0---------|----------------|----------------|
A|4-4---4---4---4-|4---4---4-2-0---|----------------|----------------|
E|----------------|--------------4-|2-2-2-2-5-2-2-2-|5-2-2-2-5-2-2-2-|
  1e&a2e&a3e&a4e&a 1e&a2e&a3e&a4e&a 1e&a2e&a3e&a4e&a 1e&a2e&a3e&a4e&a

  e e e e e e e e  e e e e e e e e  e e e e e e e e  e e e q   e e e  
G|----------------|----------------|----------------|------2---2-----|
D|----------------|----------------|----------------|------------2---|
A|----------------|--2---3---2-4-5/|0-0-0-0-0-0-0-0-|0-0-0---------0-|
E|1-1-1-1-1-1-1-1-|3---3---3-------|----------------|----------------|
  1e&a2e&a3e&a4e&a 1e&a2e&a3e&a4e&a 1e&a2e&a3e&a4e&a 1e&a2e&a3e&a4e&a

  e e e e e e e e  e e e e e e e e  e e e e e e e e  e e e e e e e e  
G|----------------|----------------|----------------|----------------|
D|----0---2---0---|--0---0---------|----------------|----------------|
A|4-4---4---4---4-|4---4---4-2-0---|----------------|----------------|
E|----------------|--------------4-|2-2-2-2-5-2-2-2-|5-2-2-2-5-2-2-2-|
  1e&a2e&a3e&a4e&a 1e&a2e&a3e&a4e&a 1e&a2e&a3e&a4e&a 1e&a2e&a3e&a4e&a

  e e e e e e q      e e   e e e e  e e e e e e e e  e e e q   e e e  
G|----------------|----------------|----------------|------2---2-----|
D|----------------|----------------|----------------|------------2---|
A|------------3---|----------------|0-0-0-0-0-0-0-0-|0-0-0---------0-|
E|1-1-1-1-1-1-----|--3-3---3-3-3-3-|----------------|----------------|
  1e&a2e&a3e&a4e&a 1e&a2e&a3e&a4e&a 1e&a2e&a3e&a4e&a 1e&a2e&a3e&a4e&a

  e e e e e e e e  e e e e e e e e  e e e e e e e e  e e e e e e e e  
G|----------------|----------------|----------------|----------------|
D|----0---2---0---|--0---0---------|----------------|----------------|
A|4-4---4---4---4-|4---4---4-2-0---|----------------|----------------|
E|----------------|--------------4-|2-2-2-2-5-2-2-2-|5-2-2-2-5-2-2-2-|
  1e&a2e&a3e&a4e&a 1e&a2e&a3e&a4e&a 1e&a2e&a3e&a4e&a 1e&a2e&a3e&a4e&a

  e e e e e e e e  e e e e e e q    e e e e e e e e  e e e q   e e e  
G|----------------|----------------|----------------|------2---2-----|
D|----------------|----------------|----------------|------------2---|
A|----------------|--2---3---2-----|0-0-0-0-0-0-0-0-|0-0-0---------0-|
E|1-1-1-1-1-1-1-1-|3---3---3---3---|----------------|----------------|
  1e&a2e&a3e&a4e&a 1e&a2e&a3e&a4e&a 1e&a2e&a3e&a4e&a 1e&a2e&a3e&a4e&a

  e e e e e e e e  e e e e e e e e  e e e e e e e e  e e e e e e e e  
G|----------------|----------------|----------------|----------------|
D|----0---2---0---|--0---0---------|----------------|----------------|
A|4-4---4---4---4-|4---4---4-2-0---|----------------|----------------|
E|----------------|--------------4-|2-2-2-2-5-2-2-2-|5-2-2-2-5-2-2-2-|
  1e&a2e&a3e&a4e&a 1e&a2e&a3e&a4e&a 1e&a2e&a3e&a4e&a 1e&a2e&a3e&a4e&a

  e e e e e e e e  e e e e e e q      e e e e q   q    e e q   q   e  
G|----------------|----------------|----------------|----1-----------|
D|----------------|----------------|--2-0-----------|------4---------|
A|----------------|--2---3---2-----|------4-2-------|--4-------------|
E|1-1-1-1-1-1-1-1-|3---3---3---3---|----------0---2-|----------2---2-|
  1e&a2e&a3e&a4e&a 1e&a2e&a3e&a4e&a 1e&a2e&a3e&a4e&a 1e&a2e&a3e&a4e&a

    e e q   e e e  e e e e e e q      e e e e e e q    e q   q   q  
G|----------------|----------------|----------------|----1-----------|
D|----------------|----------------|--2-0-----------|--------4-------|
A|--2-3-4---4-----|--2---3---2-----|------4-2-------|--4---------4---|
E|------------4-4-|3---3---3---3---|----------4-0-2-|----------------|
  1e&a2e&a3e&a4e&a 1e&a2e&a3e&a4e&a 1e&a2e&a3e&a4e&a 1e&a2e&a3e&a4e&a

  e e q   e q   q    e e e e   e    e e e e e e e e  e e e e e e e e  
G|----9---7-------|----------------|----------------|----------------|
D|0-7-------7-----|----------------|----------------|----------------|
A|----------------|----------------|----------------|----2---3---2---|
E|--------------1-|--1-1-1-1---3---|1-1-1-1-1-1-1-1-|3-3---3---2---3-|
  1e&a2e&a3e&a4e&a 1e&a2e&a3e&a4e&a 1e&a2e&a3e&a4e&a 1e&a2e&a3e&a4e&a

  e e e e e e e e  e q   e e e e e  e e e e e e e e  e e e e e e e e  
G|----------------|--0-------------|----------------|----------------|
D|----------0-1-2-|2---------------|----------------|----------------|
A|0-0-0-0-0-------|------0-0-0-0-0-|----------------|----2---3---2---|
E|----------------|----------------|1-1-1-1-1-1-1-1-|3-3---3---2---3-|
  1e&a2e&a3e&a4e&a 1e&a2e&a3e&a4e&a 1e&a2e&a3e&a4e&a 1e&a2e&a3e&a4e&a

  e e e e e e e e  e e e e e e e e  e e e e e e e e  e e e q   e e e  
G|----------------|--0-1-2---------|----------------|------2---2-----|
D|----------0-1-2-|----------------|----------------|------------2---|
A|0-0-0-0-0-------|0-------0-0-0-0-|0-0-0-0-0-0-0-0-|0-0-0---------0-|
E|----------------|----------------|----------------|----------------|
  1e&a2e&a3e&a4e&a 1e&a2e&a3e&a4e&a 1e&a2e&a3e&a4e&a 1e&a2e&a3e&a4e&a

  e e e e e e e e  e e e e e e e e  e e e e e e e e  e e e e e e e e  
G|----------------|----------------|----------------|----------------|
D|----0---2---0---|--0---0---------|----------------|----------------|
A|4-4---4---4---4-|4---4---4-2-0---|----------------|----------------|
E|----------------|--------------4-|2-2-2-2-5-2-2-2-|5-2-2-2-5-2-2-2-|
  1e&a2e&a3e&a4e&a 1e&a2e&a3e&a4e&a 1e&a2e&a3e&a4e&a 1e&a2e&a3e&a4e&a

  e e e e e e e e  e e e e e e q    e e e e e e e e  e e e q   e e e  
G|----------------|----------------|----------------|------2---2-----|
D|----------------|----------------|----------------|------------2---|
A|----------------|--2---3---2-----|0-0-0-0-0-0-0-0-|0-0-0---------0-|
E|1-1-1-1-1-1-1-1-|3---3---3---3---|----------------|----------------|
  1e&a2e&a3e&a4e&a 1e&a2e&a3e&a4e&a 1e&a2e&a3e&a4e&a 1e&a2e&a3e&a4e&a

  e e e e e e e e  e e e e e e e e  e e e e e e e e  e e e e e e e e  
G|----------------|----------------|----------------|----------------|
D|----0---2---0---|--0---0---------|----------------|----------------|
A|4-4---4---4---4-|4---4---4-2-0---|----------------|----------------|
E|----------------|--------------4-|2-2-2-2-5-2-2-2-|5-2-2-2-5-2-2-2-|
  1e&a2e&a3e&a4e&a 1e&a2e&a3e&a4e&a 1e&a2e&a3e&a4e&a 1e&a2e&a3e&a4e&a

  e e e e e e e e  e e e e e e q      e e e e q   q    e e q   q   e  
G|----------------|----------------|----------------|----1-----------|
D|----------------|----------------|--2-0-----------|------4---------|
A|----------------|--2---3---2-----|------4-2-------|--4-------------|
E|1-1-1-1-1-1-1-1-|3---3---3---3---|----------0---2-|----------2---2-|
  1e&a2e&a3e&a4e&a 1e&a2e&a3e&a4e&a 1e&a2e&a3e&a4e&a 1e&a2e&a3e&a4e&a

    e e q   e e e  e e q   q   q      e e e e e e q    e q   q   q  
G|----------------|----1-----------|----------------|----1-----------|
D|----------------|--------4---4--\|--2-0-----------|--------4-------|
A|--2-3-4---4-----|--4-------------|------4-2-------|--4---------4---|
E|------------4-4-|2---------------|----------4-0-2-|----------------|
  1e&a2e&a3e&a4e&a 1e&a2e&a3e&a4e&a 1e&a2e&a3e&a4e&a 1e&a2e&a3e&a4e&a

  e e q   e q   q    e e e e   e    e e e e e e e e  e e e e e e e e  
G|----9---7-------|----------------|----------------|----------------|
D|0-7-------7-----|----------------|----------------|----------------|
A|----------------|----------------|----------------|----2---3---2---|
E|--------------1-|--1-1-1-1---3---|1-1-1-1-1-1-1-1-|3-3---3---2---3-|
  1e&a2e&a3e&a4e&a 1e&a2e&a3e&a4e&a 1e&a2e&a3e&a4e&a 1e&a2e&a3e&a4e&a

  e e e e e e e e  e q   e e e e e  e e e e e e e e  e e e e e e e e  
G|----------------|--0-------------|----------------|----------------|
D|----------0-1-2-|2---------------|----------------|----------------|
A|0-0-0-0-0-------|------0-0-0-0-0-|----------------|----2---3---2---|
E|----------------|----------------|1-1-1-1-1-1-1-1-|3-3---3---2---3-|
  1e&a2e&a3e&a4e&a 1e&a2e&a3e&a4e&a 1e&a2e&a3e&a4e&a 1e&a2e&a3e&a4e&a

  e e e e e e e e  sse sse sse e e  e e e e e e e e  e e e e e e e e  
G|----------------|-54-542-542-0---|----------------|----------------|
D|----------------|--------------2-|----------------|----------------|
A|0-0-0-0-0-0-0-0-|0---------------|----------------|----2---3---2---|
E|----------------|----------------|1-1-1-1-1-1-1-1-|3-3---3---2---3-|
  1e&a2e&a3e&a4e&a 1e&a2e&a3e&a4e&a 1e&a2e&a3e&a4e&a 1e&a2e&a3e&a4e&a

  e e e e e e e e  e e e e e e e e  e e e e e e e e  e e e  
G|--------------7-|5---5-----------|----------------|----------------|
D|----0-----------|--7---7-5-------|----------------|----------------|
A|0-0---0-6-0-7---|----------7-----|----------------|----------------|
E|----------------|------------5-5-|1-1-1-1-1-1-1-1-|3-3-3-----------|
  1e&a2e&a3e&a4e&a 1e&a2e&a3e&a4e&a 1e&a2e&a3e&a4e&a 1e&a2e&a3e&a4e&a

  h       q   e q    e e e e e q    e e e e e e e e  h       h  
G|----------------|----------------|----------------|----------------|
D|------------2-4-|--4-4-4-4-4-4---|----------------|----------------|
A|----------------|----------------|----------------|3-------2-------|
E|2-------2-------|----------------|1-1-1-1-1-1-1-1-|----------------|
  1e&a2e&a3e&a4e&a 1e&a2e&a3e&a4e&a 1e&a2e&a3e&a4e&a 1e&a2e&a3e&a4e&a

  e e e e e e e e  q   e q   e q    e e e e e e e e  e q   e q   q  
G|----------------|----------------|----------------|----------------|
D|----------------|------4---4-----|----------------|----------------|
A|----------------|----4-------4---|----------------|2-2---2-4---4---|
E|2-2-2-2-2-2-2-2-|2--------------\|1-1-1-1-1-1-1-1-|----------------|
  1e&a2e&a3e&a4e&a 1e&a2e&a3e&a4e&a 1e&a2e&a3e&a4e&a 1e&a2e&a3e&a4e&a

  e e e e e e e e  e e e q   e e e  e e e e e e e e  e e e e e e e e  
G|----------------|------2---2-----|----------------|----------------|
D|----------------|------------2---|----0---2---0---|--0---0---------|
A|0-0-0-0-0-0-0-0-|0-0-0---------0-|4-4---4---4---4-|4---4---4-2-0---|
E|----------------|----------------|----------------|--------------4-|
  1e&a2e&a3e&a4e&a 1e&a2e&a3e&a4e&a 1e&a2e&a3e&a4e&a 1e&a2e&a3e&a4e&a

  e e e e e e e e  e e e e e e e e  e e e e e e e e  e e e e e e q    
G|----------------|----------------|----------------|----------------|
D|----------------|----------------|----------------|----------------|
A|----------------|----------------|----------------|--2---3---2-----|
E|2-2-2-2-5-2-2-2-|5-2-2-2-5-2-2-2-|1-1-1-1-1-1-1-1-|3---3---3---3---|
  1e&a2e&a3e&a4e&a 1e&a2e&a3e&a4e&a 1e&a2e&a3e&a4e&a 1e&a2e&a3e&a4e&a

  e e e e e e e e  e e e q   e e e  e e e e e e e e  e e e e e e e e  
G|----------------|------2---2-----|----------------|----------------|
D|----------------|------------2---|----0---2---0---|--0---0---------|
A|0-0-0-0-0-0-0-0-|0-0-0---------0-|4-4---4---4---4-|4---4---4-2-0---|
E|----------------|----------------|----------------|--------------4-|
  1e&a2e&a3e&a4e&a 1e&a2e&a3e&a4e&a 1e&a2e&a3e&a4e&a 1e&a2e&a3e&a4e&a

  e e e e e e e e  e e e e e e e e  e e e e e e e e  e e e e e e q    
G|----------------|----------------|----------------|----------------|
D|----------------|----------------|----------------|----------------|
A|----------------|----------------|----------------|--2---3---2-----|
E|2-2-2-2-5-2-2-2-|5-2-2-2-5-2-2-2-|1-1-1-1-1-1-1-1-|3---3---3---3---|
  1e&a2e&a3e&a4e&a 1e&a2e&a3e&a4e&a 1e&a2e&a3e&a4e&a 1e&a2e&a3e&a4e&a

    e e e e q   q    e e q   q   e    e e q   e e e  e e q   q   q  
G|----------------|----1-----------|----------------|----1-----------|
D|--2-0-----------|------4---------|----------------|--------4---4--/|
A|------4-2-------|--4-------------|--2-3-4---4-----|--4-------------|
E|----------0---2-|----------2---2-|------------4-4-|2---------------|
  1e&a2e&a3e&a4e&a 1e&a2e&a3e&a4e&a 1e&a2e&a3e&a4e&a 1e&a2e&a3e&a4e&a

    e e e e e e q    e q   q   q    e e q   e q   q    e e e e   e  
G|----------------|----1-----------|----9---7-------|----------------|
D|--2-0-----------|--------4-------|0-7-------7-----|----------------|
A|------4-2-------|--4---------4---|----------------|----------------|
E|----------4-0-2-|----------------|--------------1-|--1-1-1-1---3---|
  1e&a2e&a3e&a4e&a 1e&a2e&a3e&a4e&a 1e&a2e&a3e&a4e&a 1e&a2e&a3e&a4e&a

  h                                           e   e    e e e e e e e
G|----------------|----------------|----------14--14|--14121417141214|
D|----------------|----------------|----------------|----------------|
A|----------------|----------------|----------------|----------------|
E|1--------------\|----------------|----------------|----------------|
  1e&a2e&a3e&a4e&a 1e&a2e&a3e&a4e&a 1e&a2e&a3e&a4e&a 1e&a2e&a3e&a4e&a

  q.    e r e e e  q   e e e e e e  e   e       e   s.s s.  e   e
G|14----17--141719|20--191717141214|12--14------17--141714--12--14--|
D|----------------|----------------|--------------------------------|
A|----------------|----------------|--------------------------------|
E|----------------|----------------|--------------------------------|
  1e&a2e&a3e&a4e&a 1e&a2e&a3e&a4e&a 1 e & a 2 e & a 3 e & a 4 e & a

  q   e q   e e e  s.s s.  e   e   s s e   e   e    e e e e e e e e
G|14--1717--141719|----------------------------17--|--------14141414|
D|----------------|191719--19--19--171919--19------|19191717--------|
A|----------------|--------------------------------|----------------|
E|----------------|--------------------------------|----------------|
  1e&a2e&a3e&a4e&a 1 e & a 2 e & a 3 e & a 4 e & a  1e&a2e&a3e&a4e&a

  e e q.    q   q    e e e e q   e  e e e e e e e e  e e e e e e e e
G|171920----19--20|--1917----------|----------------|----------------|
D|----------------|------191719--19|1919191919191917|----------------|
A|----------------|----------------|----------------|1717171717171716|
E|----------------|----------------|----------------|----------------|
  1e&a2e&a3e&a4e&a 1e&a2e&a3e&a4e&a 1e&a2e&a3e&a4e&a 1e&a2e&a3e&a4e&a

  e e e e e e q    e e e e e e e e e e e e e e e e e e e e e e e e e
G|----------------|----------------|----------------|----------0-3-5-|
D|----------------|----------------|----------------|----------------|
A|----------------|----------------|1-1-1-1-1-1-1-1-|3-3-3-3-3-------|
E|15151515151515--|4-4-4-4-4-4-4-4-|----------------|----------------|
  1e&a2e&a3e&a4e&a 1e&a2e&a3e&a4e&a 1e&a2e&a3e&a4e&a 1e&a2e&a3e&a4e&a

  e e e e e e e e  e e e e e e e e  e e e e e e e e  e e e e e e e e
G|----------------|----------------|----------------|----------------|
D|----------------|----------------|--0---1---0-----|----------------|
A|3-3-3-3-3-3-1-1-|----------------|1---1---1---1-1-|3-3-3-3-3-3-3-3-|
E|----------------|4-4-4-4-4-4-4-4-|----------------|----------------|
  1e&a2e&a3e&a4e&a 1e&a2e&a3e&a4e&a 1e&a2e&a3e&a4e&a 1e&a2e&a3e&a4e&a

  e e e e e e q    e e e e e e e e  e e e e e e e e  e e e e e e e e
G|0-5-3-3-0---0---|----------------|----------------|--------------0-|
D|----------------|----------------|--0---1---0-----|----------------|
A|----------3-----|----------------|1---1---1---1-1-|3-3-3-3-3-3-3---|
E|----------------|4-4-4-4-4-4-4-4-|----------------|----------------|
  1e&a2e&a3e&a4e&a 1e&a2e&a3e&a4e&a 1e&a2e&a3e&a4e&a 1e&a2e&a3e&a4e&a

  sssse e e q.     e e e e e e e e  e e e e e e e e  e e e e e e e e
G|53530---5-3-----|----------------|----------------|--------------0-|
D|----------------|----------------|----------------|----------------|
A|------3---------|----------------|1-1-1-1-1-1-1-1-|3-3-3-3-3-3-3---|
E|----------------|4-4-4-4-4-4-4-4-|----------------|----------------|
  1e&a2e&a3e&a4e&a 1e&a2e&a3e&a4e&a 1e&a2e&a3e&a4e&a 1e&a2e&a3e&a4e&a

  q.    q.    q    e e e e e e e e  e e h.
G|5-----5-----5---|----------------|----------------|----------------|
D|----------------|----------------|----------------|----------------|
A|----------------|----------------|----------------|----------------|
E|----------------|4-4-4-4-4-4-4-4-|6-6-6\\\\\\\\\\\|\\--------------|
  1e&a2e&a3e&a4e&a 1e&a2e&a3e&a4e&a 1e&a2e&a3e&a4e&a 1e&a2e&a3e&a4e&a


That's it.  Tetsu-sama is a bass GOD.  Only my third tab, and my first one this complex, so please rate it.


Lyrics (in romaji):

Nuke dashita daichi de
te ni ireta no wa jiyuu
maybe lucky maybe lucky
I dare say I'm lucky

reeru no ue ni sotte
doko made yukeru kana
maybe lucky maybe lucky
I dare say I'm lucky

yakimashi no sekai ni wa hikarenai kara
kimi no mirai wa acchi
saa trying trying in yourself

causes stain stay away
causes stain stay away

massara na taiyou wa
dare ni mo furi sosogu
maybe happy maybe happy
I dare say I'm happy

urusaku iwanaide ne
shizunde shimau kara
maybe happy maybe happy
I dare say I'm happy

karamitsuku sekai ni wa unzara nano sa
kagefumi shitenaide
saa trying trying in yourself

causes stain stay away
causes stain stay away
causes stain stay away
right away, oh! BOTHER ME

umarenagara boku wa muhou jyoutai sa
ishi koro korogashi
saa trying trying in myself

causes stain stay away
causes stain stay away
causes stain stay away
right away ...

ukabu kumo no you ni
dare mo boku o tsukamenai
nani mo kamo o kowashi
jiyuu no moto ni umareta



            
            
Suggest correction
Creating personal tab
Creating personal tab
You can edit any tab online and save it as your Personal.

You can edit, replace or remove any tab part or add personal notes – all changes will be seen only by you.

Personal tabs can be accessed anytime from any device, even offline.
Learn more »
Give kudos to tab author, rate the tab!
1 2 3 4 5
comments
print report bad tab
guest
You may want to rate the tab now too:
select rating
Wanna post a correction for this tab? Suggest correction