Oops, an error
Loading. Please wait.

Bubble Shuffle Tab

11,139 views 21 this week
1 commentread comment
1 2 3 4 5
x 4
add to favorites
launch autoscroll
font size
0
reset
how to read this tab
guitar tuner
backing track
0:00
0:00
Autoscroll
slow
fast
+/-
esc
set tempo
stop
Author
Artist: Larry Carlton
Track: Bubble Shuffle
Album: On Solid Ground (1989)
Tabbed by: pedal2
Suggested voicings for verse rhythm:
A(9):   x024xx and x022xx
F#m(9): 246xxx and 244xxx
F9:     135xxx
G9:     357xxx

Tempo: 95bpm, swung 16ths

[VERSE]
                 A(9)                                  F#m(9)
e----10-9-------|----------------|--------------------|----------------|
B-7-8----10-----|----------------|--------------7\5-3-|2---------------|
G----------9-11b|12--7--6--------|4---7--6------6\4-2-|2--/4--2-------/|
D---------------|----7--7--------|5---9--7------------|6--/4--2-------/|
A---------------|----------------|--------------------|----------------|
E---------------|----------------|--------------------|----------------|
    .   4  .     1 . 2 . 3 . 4 .  1 . 2 . 3   .   4 .  1 . 2 . 3 . 4 .

                           F9      G9       F9      G9           note 1
e|----------------------4-|5---------------|-----------------10-9----|
B|--------------------7---|----6--8--------|---------------10----10--|
G|4---4--2----------6-----|----5--7--------|5---5--7------9--------9-|
D|6---6--4------4-7-------|----7--9--------|5---5--7----11-----------|
A|------------4-----------|----------------|8---8--10-12-------------|
E|------------------------|----------------|-------------trip--------|
  1 . 2 . 3   .   4   .    1 . 2 . 3 . 4 .  1 . 2 . 3   .    4   .

  A(9)
e|7-------------------|---------|
B|--10----------------|---------|
G|--------7--6--------|4---7--6-|
D|--------7--7--------|5---9--7-|
A|--------------------|---------|
E|--------------------|---------|
  1   .   2 . 3 . 4 .  1 . 2 . 3

[CHORUS]
               Eb          Eb/C         Eb/Bb           Eb/C
e|----------13|15------13------------13|15--15--15--13------------13|
B|--------16--|----------16--------16--|--------------16--------16--|
G|------15----|------------15----------|----------------15----------|
D|-13-17------|------------------------|----------------------------|
A|------------|------------------------|----------------------------|
E|--straight--|------------------------|----------------------------|
  .   4   .    1 . 2   .   3 . 4   .    1   .   2   .   3 . 4   .

  D  note 2    G              D               G
e|14--14-12------------------|------------------------------11|
B|-----------12-----10-12----|----10-10-------------------14--|
G|------------------------/11|---------/11--7-----------13----|
D|---------------------------|---------(12)(9)--------15------|
A|---------------------------|--------------------------------|
E|---------------------------|--------------------------------|
  1 . 2    .   3 . 4     .    1   .   2   .   3   .   4   .

  Db/C        Db/Bb        Db/Ab           Db/Gb
e|13------11------------11|13-/16--13--11------------11|
B|----------14--------14--|--------------14--------14--|
G|------------13----------|----------------15----------|
D|------------------------|----------------------------|
A|------------------------|----------------------------|
E|------------------------|----------------------------|
  1 . 2   .   3 . 4   .    1   .   2   .   3 . 4   .

  E     note 3                     F             G
e|12------12----12--------12----13|--------13----15-|
B|--------------------------------|-----------------|
G|----9-----9---------9-----9-----|----10----10--12-|
D|--------------------------------|-----------------|
A|--------------------------------|-----------------|
E|--------------------------------|-----------------|
  1   .   2   .   3   .   4   .    1   .   2   .   3

[SOLO]
                       Bb7
e-15b-15b|----13--12--------------------------|
B--------|------------16-14-------14-14-------|
G--------|------------------15----------15-13-|
D--------|---------------------17-------------|
A--------|------------------------------------|
E--------|------------------------------------|
 4   .    1 . 2   .   3     .     4     .

e|-----------------------------------------------------|
B|-----------------------------------------------------|
G|-----------------------------------------------15----|
D|---13h14p13----13---------------------------15----17-|
A|------------16----16-13----13---15-13-15/17----------|
E|--- trip ---------------16------------- trip --------|
  1     .        2     .     3    .     4        .

  Gm7                                                           see note 4
e|----------------------------------------|-------------------------------|
B|----------------------------------------|-------------------------------|
G|----------15-14b15----------------------|-------------------------------|
D|----15-17----------17----17-------15-12-|---------------------------8h11|
A|----------------------------------------|15-13------------------8h11----|
E|----------------------------------------|---------15-------------- trip |
  1 . 2     .     3     .     4     .      1     .     2 . 3 . 4    .

  Bb7
e|--------------------------------------|
B|-------11-----------------------------|
G|8-9-10---8h9p8------------------------|
D|---------------11-8-------------------|
A|-------------------------6b7--6-4-6-4-|
E|--------- trip -----------------------|
  1   .    2     .    3   .     4   .

e|-------------- trip ---- trip -----  trip -|
B|-------------------------------------------|
G|--------------------------------------10h12|
D|-------3------------------------8----------|
A|4b5--6---4b5---------------8h10---10-------|
E|--------------6p3h6---8h10-----------------|
 1    .   2    .    3    .       4    .

  Gm7
e|---------------- trip 8ths --------------------|
B|11--------------13--b14--13--11----11-11-------|
G|-----12-10-12-------------------12----------12-|
D|-----------------------------------------------|
A|-----------------------------------------------|
E|-----------------------------------------------|
  1    .     2    .      3     .     4    .

                                 Gb             Ab           note 5
e|-----------------------------13|-11---------------------------|
B|-------------------------------|----14--11--14/13-------------|
G|----10----12----10-10----------|--------------------13--------|
D|-------12----12----------------|-----------------------13-----|
A|-------------------------------|------------------------------|
E|-------------------------------|------------------------------|
 1   .     2     .     3 . 4 .   1  .  2   .    3    .     4 .

  Gb              Ab
e|----------------------------------------|
B|----14-11-------16-13-------17-14-------|
G|----------11----------13----------14----|
D|-------------11----------13----------14-|
A|----------------------------------------|
E|----------------------------------------|
  1 . 2     .     3     .     4     .

  Bb7
e|------------15----16-13---------------------|
B|18-15------------------------16----14-13----|
G|------15---------------------------------15-|
D|---------15---------------------------------|
A|--------------------------------------------|
E|--------------------------------------------|
  1     .     2     .     3   .   4     .

e|----------------------------------------|
B|----------------------------------------|
G|14-13-12-----------------------12--13---|
D|--------15---16-15-14-13-----15--15--15-|
A|------------------------16s17-----------|
E|----------------------------------------|
  1     .    2    .     3    .   4   .

e|-------------15--16--17-18----16---|-11b12-11-9---9b10--9-8-6---8-6-|
B|------13-14----18--18--------------|------------11------------8-----|
G|14--15-----------------------------|--------------------------------|
D|--15-------------------------------|--------------------------------|
A|-----------------------------------|--------------------------------|
E|-----------------------------------|--------------------------------|
  1   .    2   .   3   .    4   .     1   .  2    .   3   .   4   .

  Gm7
e|-----/22--18----------|------------------------------- trip --------|
B|----------------15----|-----14b15---b15-----------------------------|
G|-------------------15-|------------------15----13-------------------|
D|----------------------|---------------------------15-13h14p13-------|
A|----------------------|---------------------------------------16-13-|
E|----------------------|---------------------------------------------|
  1 . 2   .   3 . 4  .   1   .     2     .   3   3     4        .

  Bb7
e|---- trip ---------- trip ---------- trip |
B|--------------11--------------11----------|
G|----------/12-------------/12-------------|
D|------8h11------------8h11------------8h11|
A|--8h11------------8h11------------8h11----|
E|------------------------------------------|
  1   .      2    .   3      .    4   .

e|------------13-15-16-15h16p15-13-15-13---------|
B|-----11--------------------------------14------|
G|/12----/13--------------------------------15---|
D|-----------------------------------------------|
A|-----------------------------------------------|
E|---------------------- trip -------------------|
   1   .    2    .     3        .     4     .

  Gm7
e|------ trip --- trip --------------------------------|
B|-----------------------------------------------11----|
G|12-10h12p10---------------------------------------10-|
D|-----------12-10h11p10----------10-----10h11h12------|
A|----------------------13-10--------------------------|
E|-----------------------------------------------------|
  1     .       2       .     3     .    4       .

                                            Gb                 Ab
e|----------------15-13-----15---16---18-14|-----------------------------|
B|-----------15----------------------------|----14--14-/18--16---------14|
G|12---15-12-------------------------------|-----------------------------|
D|-----------------------------------------|-----------------------------|
A|-----------------------------------------|-----------------------------|
E|-----------------------------------------|-----------------------------|
  1    .     2    .    3    .    4    .     1   .   2     .    3 . 4  .

  Gb                  Ab           Bb7                          note 6
e|------------13------------------|--------------------------------|
B|-14------14------16----------18b|21----18-17-16------------------|
G|------15------------------------|--------------18-15--18-15-18---|
D|--------------------------------|-------------------18--------18-|
A|--------------------------------|--------------------------------|
E|--------------------------------|--------------------------------|
  1   .    2     .    3 . 4   .    1  .  2  .  3    .   4     .

                           to [CHORUS]
e|------------------------|
B|------------------------|
G|------------------------|
D|--17---15---13-11h12----|
A|---------------------13-|
E|------------------------|
  1    .    2    .     3

************************************

| \    Slide down
| b    Bend
| /    Slide up
| .    Staccato
| (n)  Ghost note
| h    Hammer-on
| p    Pull-off

************************************
Suggest correction
comments
print report bad tab
1 comment total.
0 reply
ErnieBallz 10 Nov 17, 2009 04:56 PM

if it was only a guitar pro tab damn

guest
You may want to rate the tab now too:
select rating
Wanna post a correction for this tab? Suggest correction