Oops, an error
Loading. Please wait.

Room 335 tab

version 2
version 2

Whole song

Interactive

658 views 12 this week
no commentswrite comment
1 2 3 4 5
3 more votes to show rating
add to favorites
×
Save as Personal and add changes to this tab that will be seen only by you. Learn more ›
×
You can save this tab as Personal to edit and correct it or add notes. All changes will be seen only by you. Learn more »
launch autoscroll
font size
0
reset
how to read this tab
guitar tuner
backing track
0:00
0:00
edit
Autoscroll
slow
fast
+/-
esc
set tempo
stop
Author
Difficulty
This is the version he played in the Truefire video.

I watched the video several times to come up with this tab and I'm sure it's not 100% correct but 
I think it's pretty close.

[Intro]

e|---------------------------------------------------------------------------|
B|---------------------------------------------------------------------------|
G|--4/6---4---4/6---4---4/6--2-----------------------------------------------|
D|--2/4---2---2/4---2---2/4--2-----------------------------------------------|
A|--0-0---4---0-0---4---0-0--x-----------------------------------------------|
E|---------------------------2-----------------------------------------------|


e|------0--------------------------------------------------------------------|
B|------0--------------------------------------------------------------------|
G|--4/6----4---4/6---4---4/6--2----------------------------------------------|
D|--2/4----2---2/4---2---2/4--2----------------------------------------------|
A|--0-0----4---0-0---4---0-0--x----------------------------------------------|
E|----------------------------2----------------------------------------------|


e|---------------------------------------------------------------------------|
B|---------------------------------------------------------------------------|
G|---------------------------------------------------------------------------|
D|------7---7---9------------------------------------------------------------|
A|--7h9---9---9---7--9--7\0--------------------------------------------------|
E|---------------------------------------------------------------------------|


e|---------------------------------------------------------------------------|
B|----------------5----------------------------------------------------------|
G|--------2h4-4/6------5\4p2h4---2h4p2---------------------------------------|
D|--2h4p2----------------------4-------/4--2---------------------------------|
A|-------------------------------------------0-------------------------------|
E|---------------------------------------------------------------------------|


e|---------------------------------------------------------------------------|
B|----------------5--/5------------------------------------------------------|
G|--------2h4-4/6--------5\4p2h4---2h4p2-------------------------------------|
D|--2h4p2------------------------4-------/4--2/7-----------------------------|
A|---------------------------------------------------------------------------|
E|---------------------------------------------------------------------------|


e|---------------------------------------------------------------------------|
B|----------------8-/8-/8----------------------------------------------------|
G|--------5h7-7/9-----------8\7p5h7---5h7p5----------------------------------|
D|--5h7p5---------------------------7-------/7--5----------------------------|
A|--------------------------------------------------3------------------------|
E|---------------------------------------------------------------------------|


e|---------------------------------------------------------------------------|
B|----------------5----------------------------------------------------------|
G|--------2h4-4/6------5\4p2h4---2h4p2-------------5---------7---------------|
D|--2h4p2----------------------4-------/4------------7---------9-------------|
A|-----------------------------------------5/7--0------8/10------10/12-------|
E|---------------------------------------------------------------------------|


e|-------------------------------------------------------------10-10---------|
B|-------------------------------------------------7-----10/12---------------|
G|------7-9b11-b11---b11r9-7-9-9b11-9---9b10r9-7-9---7-----------------------|
D|--7h9----------------------------------------------------------------------|
A|---------------------------------------------------------------------------|
E|---------------------------------------------------------------------------|


e|--------10-12-10-9---------------------------------------------------------|
B|--10/12------------12b13-12--10-10--12b13r12--10-9------10--------11-11----|
G|---------------------------------------------------------------------------|
D|----------------------------------------------------8/9-----9/10-----------|
A|---------------------------------------------------------------------------|
E|---------------------------------------------------------------------------|


e|------5-5---------------------------2------------10-12--14-10----10--------|
B|--5/7------7p5\3--5b6r5---5b6r5-3-5---3---/10-12--------------12-----------|
G|---------------------------------------------------------------------------|
D|---------------------------------------------------------------------------|
A|---------------------------------------------------------------------------|
E|---------------------------------------------------------------------------|


e|--------10-12-10-9---------------------------------------------------------|
B|--10/12------------12b13-12--10-10--8-7h8-7h8-7h8p7------------------------|
G|----------------------------------------------------7h9h11--7--------------|
D|----------------------------------------------------------------6h9--6-----|
A|---------------------------------------------------------------------------|
E|---------------------------------------------------------------------------|


e|------5-5-5-5--5h7---------------------------------------------------------|
B|--5/7---------------7b8--5-------------------------------------------------|
G|---------------------------4/6\4-------------------------------------------|
D|---------------------------------------------------------------------------|
A|---------------------------------------------------------------------------|
E|---------------------------------------------------------------------------|


e|------5-5-5h7-5------------------------------------------------------------|
B|--5/7-----------7b8-5-----5------------------------------------------------|
G|----------------------6\4---4/6---------------9----------------------------|
D|---------------------------------7-----7-9/11------------------------------|
A|-----------------------------------7/9-------------------------------------|
E|---------------------------------------------------------------------------|


e|--12-12-12-12h14-12--------------------------------------------------------|
B|--------------------12h14-12-10--10\9----9-10------------------------------|
G|--------------------------------------11-----------------------------------|
D|---------------------------------------------------------------------------|
A|---------------------------------------------------------------------------|
E|---------------------------------------------------------------------------|


e|--12-12-12-14-12-----------------------------------------------------------|
B|-----------------10-10---10h12p10------------------------------------------|
G|-----------------------11--------11-9-11--9/10---------------------------9-|
D|-----------------------------------------------11---------11--9-11p9----9--|
A|--------------------------------------------------12-9-12------------12----|
E|---------------------------------------------------------------------------|


e|------------------12-12-12-14-12--17-14------------------------------------|
B|----------------------------------------17---------------------------------|
G|--11p9----9-11------------------------------16b17r16-14--------------------|
D|-------11-----------------------------------------------16-----------------|
A|---------------------------------------------------------------------------|
E|---------------------------------------------------------------------------|


e|--5-2-5p4---2--------------------------------------------------------------|
B|----------5---5p2----------------------------------------------------------|
G|------------------5\4--2-4-2--------2---2---2------------------------------|
D|-----------------------------4--2h4---4---4---4/6--------------------------|
A|---------------------------------------------------------------------------|
E|---------------------------------------------------------------------------|


e|----------5---5------------------------------------------------------------|
B|------5/7---7--------5-----------------------------------------------------|
G|--4/6------------6/7----5h6--6/7--7/9--9/10--------------------------------|
D|-----------------------7----7----7----7------------------------------------|
A|---------------------------------------------------------------------------|
E|---------------------------------------------------------------------------|


e|---------------------------------------------------------------------------|
B|---------------------------------------------------------------------------|
G|--9-7-5--------------------------------5-----7-----------------------------|
D|--------7p5-----5----------------5-6h7---7/9-------------------------------|
A|------------5h7---5h7p5----5---7-------------------------------------------|
E|------------------------8----8---------------------------------------------|


e|-------------------------8-10-12-15--15p12-15p12-15-12-15b17--r15-12-------|
B|--------------------8-10---------------------------------------------------|
G|-----7h9-----7-9-10--------------------------------------------------------|
D|--10------10---------------------------------------------------------------|
A|---------------------------------------------------------------------------|
E|---------------------------------------------------------------------------|


e|--15b17-17r15-12-14-12-12-----------------12-------------------------------|
B|---------------------------14\12-10-10h12----12----------------------------|
G|---------------------------------------------------------------------------|
D|---------------------------------------------------------------------------|
A|---------------------------------------------------------------------------|
E|---------------------------------------------------------------------------|


e|---------------------------------------------------------------------------|
B|--9/10-------------------------------10------------------------------------|
G|-------9h11-9------9-----10--------------12--------------------------------|
D|--------------9h11---9------12-10h12---------------------------------------|
A|---------------------------------------------------------------------------|
E|---------------------------------------------------------------------------|


e|--5-6-7-8-9-10-11-11/12--10-9----------12b14-------12b14-------------------|
B|------------------------------12-10-10-------10-10-------------------------|
G|---------------------------------------------------------------------------|
D|---------------------------------------------------------------------------|
A|---------------------------------------------------------------------------|
E|---------------------------------------------------------------------------|


e|--14-15-14----14-------------17---------5----------------------------------|
B|-----------17----17b19r17-15----17b19-----5b7r5p3-5-------3----------------|
G|----------------------------------------------------2/4\2------------------|
D|---------------------------------------------------------------------------|
A|---------------------------------------------------------------------------|
E|---------------------------------------------------------------------------|


e|--10h12-10-9-------------------------------7------9------------------------|
B|-------------12b14r12--10-12----10--9--------------------------------------|
G|-----------------------------11------9-8h9----8h9--------------------------|
D|---------------------------------------------------------------------------|
A|---------------------------------------------------------------------------|
E|---------------------------------------------------------------------------|


e|--8-----------------------------------12-14-12-----------------------------|
B|----8----------8------9------10-12/14----------14\12-10-12b14(14)----------|
G|------9----8/9---9/10---9/11-----------------------------------------------|
D|--------10-----------------------------------------------------------------|
A|---------------------------------------------------------------------------|
E|---------------------------------------------------------------------------|


e|--14-14-12h13p12----12----12h13p12----11h12p11----10-8-10------------------|
B|-----------------15----15----------15----------14---------10/12-8-10-------|
G|---------------------------------------------------------------------------|
D|---------------------------------------------------------------------------|
A|---------------------------------------------------------------------------|
E|---------------------------------------------------------------------------|


e|--------10-10----12-10-9---------------------------------------------------|
B|--10/12-------12---------12b14-12-10-12-10--8-7h8-7h8-7h8-7----------------|
G|------------------------------------------------------------7h9h11-7-------|
D|---------------------------------------------------------------------------|
A|---------------------------------------------------------------------------|
E|---------------------------------------------------------------------------|

This is the end of my tab, I know the song goes on for about another minute 
or so but that's for improvisation.



************************************

| x    Dead note
| (n)  Ghost note
| h    Hammer-on
| p    Pull-off
| r    Release
| b    Bend
| /    Slide up
| \    Slide down

************************************

            
            
Suggest correction
Creating personal tab
Creating personal tab
You can edit any tab online and save it as your Personal.

You can edit, replace or remove any tab part or add personal notes – all changes will be seen only by you.

Personal tabs can be accessed anytime from any device, even offline.
Learn more »
Give kudos to tab author, rate the tab!
1 2 3 4 5
comments
print report bad tab
guest
You may want to rate the tab now too:
select rating
Wanna post a correction for this tab? Suggest correction