Oops, an error
Loading. Please wait.

I Wish Wed All Been Ready tab

version 2
version 2

Whole song

547 views 6 this week
1 commentread comment
1 2 3 4 5
x 6
add to favorites
×
Save as Personal and add changes to this tab that will be seen only by you. Learn more ›
×
You can save this tab as Personal to edit and correct it or add notes. All changes will be seen only by you. Learn more »
launch autoscroll
font size
0
reset
how to read this tab
guitar tuner
edit
Autoscroll
slow
fast
+/-
esc
set tempo
stop
Author
Difficulty
-------------------------------------------------------------------------------
                   I Wish We'd All Been Ready - Larry Norman
-------------------------------------------------------------------------------
Tabbed by:CalvinMills and Father
E-mail:calvin@long-mills.ca

Tab based on Only Visiting This Planet album version.

G    |320003|
Fsus2|XX3013|
C    |X32013|
Dsus4|XX0233|
D    |XX0232|
Dsus2|XX0230|
Am7  |X02213|

Tuning:Standard (EADGBe)

INTRO
e|-----3-------0-------0-------0---|-------0------------------0-------0---|
B|-0-------3-------5-------8-------|-(10)------8---(10)-(12)------8-------|
G|---0---0---0---0---0---0---0---0-|-----0---0----0----0----0---0---0---0-| x2
D|---------4-------5-------9-------|-(10)-----(10)-(10)-(12)------9-------|
A|---------------------------------|--------------------------------------|
E|-3-------------------------------|--------------------------------------|

VERSE
   G             Fsus2               C             Dsus4 D Dsus2 D
e|-----3-------3-------3-------3---|-----3-------3---3---2---0---2---|
B|-0-------0-------1-------1-------|-1-------1-------3---3---3---3---|
G|---0---0---0---0---0---0---0---0-|---0---0---0---0-2---2---2---2---| x2
D|---------0-------3-------3-------|---------2-------0---0---0---0---|
A|---------------------------------|-3-------------------------------|
E|-3-------------------------------|---------------------------------|
   C       G     Fsus2     C         G           
e|-----3-------3-------3-------3---|-----3-------3-------3-------3---|
B|-1-------0-------1-------1-------|-0-------0-------0-------0-------|
G|---0---0---0---0---0---0---0---0-|---0---0---0---0---0---0---0---0-| 
D|-----------------3---------------|---------0---------------0-------|
A|-3-----------------------3-------|---------------------------------|
E|---------3-----------------------|-3---------------3---------------|

VERSE 1
 G
Life was filled with guns and war
    Fsus2                          C
And everyone got trampled on the floor
            Dsus4 D    Dsus2 D
I wish we'd all  been rea___dy
  G
Children died the days grew cold
   Fsus2                             C
A piece of bread could buy a bag of gold
            Dsus4 D    Dsus2 D
I wish we'd all  been rea___dy

CHORUS
  C                  G
There's no time to change your mind
     Fsus2            C                  G
The son has come and you've been left behind

VERSE 2
   G
A man and wife asleep in bed
     Fsus2                                  C
She hears a noise and turns her head, he's gone
            Dsus4 D    Dsus2 D
I wish we'd all  been rea___dy
  G
Two men walking up a hill
     Fsus2                               C
One disappears and one's left standing still
            Dsus4 D    Dsus2 D
I wish we'd all  been rea___dy

CHORUS
  C                  G
There's no time to change your mind
     Fsus2            C                  G
The son has come and you've been left behind

VERSE 1
 G
Life was filled with guns and war
    Fsus2                          C
And everyone got trampled on the floor
            Dsus4 D    Dsus2 D
I wish we'd all  been rea___dy
  G
Children died the days grew cold
   Fsus2                             C
A piece of bread could buy a bag of gold
            Dsus4 D    Dsus2 D
I wish we'd all  been rea___dy

CHORUS 2
  C                  G
There's no time to change your mind
 Fsus2              Am7
How could you have been so blind
     C                G
The father spoke the demons dined
     Fsus2            C                  G
The son has come and you've been left behind

TAG
D C                    G
   You've been left behind
D C                    G
   You've been left behind
D C                    G
   You've been left behind
Suggest correction
Creating personal tab
Creating personal tab
You can edit any tab online and save it as your Personal.

You can edit, replace or remove any tab part or add personal notes – all changes will be seen only by you.

Personal tabs can be accessed anytime from any device, even offline.
Learn more »
comments
print report bad tab
1 comment total.
+1 reply
StringTheoryGtr 23 Sep 03, 2016 12:53 AM

This is far and away better than version 1.

The only thing in the intro that needs changing (imho) is the 4th note, the 3 on the first string should actually be on the 2nd string! Otherwise, spectacular! Thank you for posting this!

guest
You may want to rate the tab now too:
select rating
Wanna post a correction for this tab? Suggest correction