Oops, an error
Loading. Please wait.

I Believe Tab

1,685 views 3 this week
no commentswrite comment
1 2 3 4 5
please rate
add to favorites
launch autoscroll
font size
0
reset
how to read this tab
guitar tuner
Autoscroll
slow
fast
+/-
esc
set tempo
stop
Help us to improve Ultimate-Guitar.com Take our survey!
×
Author
Difficulty
-------------------------------------------------------------------------------
                             The I Belive song
-------------------------------------------------------------------------------
Tabbed by:matt
Email:hillbillycadetboi@msn.com

Tuning:standard

e|--2----------2-----------2---------2--------------5--------------------------------|
B|-----3------3--3-------------2---2---2------------5--------------------------------|
G|----------2-----2--------------2-------2----------6--------------------------------|
D|--0--------------0-------2---------------2--------7--------------------------------|
A|--------------------------------------------------7--------------------------------|
E|--------------------------------------------------5--------------------------------|

just repeat and add your own words and extra cords after the d-a transition. Watch blue 
comedy tour rides again if you have questions about the rhythm.
Suggest correction
Give kudos to tab author, rate the tab!
1 2 3 4 5
comments
print report bad tab
guest
You may want to rate the tab now too:
select rating
Please do not post tabs as comments. Select "correction" instead!