Oops, an error
Loading. Please wait.

Army Of Zombies bass

version 1
version 1

Whole song

Interactive

278 views 1 this week
no commentswrite comment
1 2 3 4 5
3 more votes to show rating
add to favorites
×
Save as Personal and add changes to this tab that will be seen only by you. Learn more ›
×
You can save this tab as Personal to edit and correct it or add notes. All changes will be seen only by you. Learn more »
launch autoscroll
font size
0
reset
guitar tuner
edit
Autoscroll
slow
fast
+/-
esc
set tempo
stop
LARS FREDERIKSEN & THE BASTARDS - ARMY OF ZOMBIES
LARS FREDERIKSEN & THE BASTARDS: 2001
TABBED BY: JOSH HUGHFF
TUNING: STANDARD E.A.D.G


INTRO: X 4

G:|-----------------|
D:|-----------------|
A:|222--------------|
E:|---------0005-0--|


VERSE: X 2

DO THIS X 3          4TH TIME DO THIS
G:|-----------------|-----------------|
D:|-----------------|-----------------|
A:|22222222---------|-----------------|
E:|---------0005-0--|5-555555-0-000000|


CHORUS: X 4

G:|------------------------------------|
D:|------------------------------------|
A:|2-222222----------------------------|
E:|---------0-000000-5-555555-0-000000-|


GAP: X 4

G:|-----------------|
D:|-----------------|
A:|222--------------|
E:|---------0005-0--|


VERSE: X 2

DO THIS X 3          4TH TIME DO THIS
G:|-----------------|-----------------|
D:|-----------------|-----------------|
A:|22222222---------|-----------------|
E:|---------0005-0--|5-555555-0-000000|


CHORUS: X 4

G:|------------------------------------|
D:|------------------------------------|
A:|2-222222----------------------------|
E:|---------0-000000-5-555555-0-000000-|


BRIDGE: PART 1 X 4

G:|---------------------------------|
D:|---------------------------------|
A:|----------------0-02-222-0-02-222|
E:|222-222--------------------------|

BRIDGE: PART 2 X 3

G:|------------------------------------|
D:|------------------------------------|
A:|2-----------------------------------|
E:|---------0--------5--------0--------|

4TH TIME PLAY THIS
G:|---------------------------------------|
D:|---------------------------------------|
A:|---------------------------------------|
E:|----------0--------55555555-00000000---|


CHORUS: X 4

G:|------------------------------------|
D:|------------------------------------|
A:|2-222222----------------------------|
E:|---------0-000000-5-555555-0-000000-|


ENDING:

PLAY THIS X 3        4TH TIME END ON
G:|-----------------|---------------|
D:|-----------------|---------------|
A:|222--------------|222------------|
E:|---------0005-0--|---------------|


THATS IT. A GOOD SONG, AND VERY EASY TO PLAY FOR ANYONE AT ANY LEVEL. CHEERS!!!

            
            
Suggest correction
Creating personal tab
Creating personal tab
You can edit any tab online and save it as your Personal.

You can edit, replace or remove any tab part or add personal notes – all changes will be seen only by you.

Personal tabs can be accessed anytime from any device, even offline.
Learn more »
Give kudos to tab author, rate the tab!
1 2 3 4 5
comments
print report bad tab
guest
Wanna post a correction for this tab? Suggest correction