Oops, an error
Loading. Please wait.

Vietnam Tab

version 3
version 3

Whole song

Interactive

134 views 1 this week
1 commentread comment
1 2 3 4 5
1 last vote to show rating
add to favorites
launch autoscroll
font size
0
reset
how to read this tab
guitar tuner
×
Best way to learn
"Vietnam"
Autoscroll
slow
fast
+/-
esc
set tempo
stop
Tabbed By CorporalHicks

Song:  Vietnam
Album: Lars Frederiksen And The Bastards
Band:  Lars Frederiksen And The Bastards
	
Legend

D - Down Pick/Strum
U - Up Pick/Strum
X - Not Played

NOTE: Everything's strummed down, unless stated.
	
----------------------------------------------------------------------------

Intro

e|------------------------------------------------------------------------|X
B|------------------------------------------------------------------------|X
G|-5-5-5-5-5-5------------------------------------------------------------|
D|-5-5-5-5-5-5------------------------------------------------------------|
A|-3-3-3-3-3-3------------------------------------------------------------|
E|------------------------------------------------------------------------|
   D U D U D U

Verse

e|------------------------------------------------------------------------|X
B|------------------------------------------------------------------------|X
G|-8-8-8-10-10-10---------------------------------------------------------|
D|-8-8-8-10-10-10-10-10-10-5-5-5-5----------------------------------------|
A|-5-5-5-8--8--8--10-10-10-5-5-5-5----------------------------------------|
E|----------------8--8--8--3-3-3-3----------------------------------------|
   D U D D  U  D  D  U  D  D U D U

Chorus

e|------------------------------------------------------------------------|X
B|------------------------------------------------------------------------|X
G|-7-7-7-7-7-7-7-7-----------------5-5-5-5-5-5-5-5-7-7-7-7-10-10-9-5-7----|
D|-7-7-7-7-7-7-7-7-3-3-3-3-3-3-3-3-5-5-5-5-5-5-5-5-7-7-7-7-10-10-9-5-7----|
A|-5-5-5-5-5-5-5-5-3-3-3-3-3-3-3-3-3-3-3-3-3-3-3-3-5-5-5-5--8--8-7-3-5----|
E|-----------------1-1-1-1-1-1-1-1----------------------------------------|

e|------------------------------------------------------------------------|X
B|------------------------------------------------------------------------|X
G|-7-7-7-7-7-7-7-7-----------------5-5-5-5-5-5-5-5-7-7-7-7-10-10-9-5-7----|
D|-7-7-7-7-7-7-7-7-3-3-3-3-3-3-3-3-5-5-5-5-5-5-5-5-7-7-7-7-10-10-9-5-7----|
A|-5-5-5-5-5-5-5-5-3-3-3-3-3-3-3-3-3-3-3-3-3-3-3-3-5-5-5-5--8--8-7-3-5----| 
E|-----------------1-1-1-1-1-1-1-1----------------------------------------|

Intro - Second and Third time only
e|------------------------------------------------------------------------|X
B|------------------------------------------------------------------------|X
G|----------------------------5-5-5-5-5-5-5-5-----------------------------|
D|-7--------7--------7--------5-5-5-5-5-5-5-5-----------------------------|
A|-7-(Hold)-7-(Hold)-7-(Hold)-3-3-3-3-3-3-3-3-----------------------------|
E|-5--------5--------5----------------------------------------------------|
                              D U D U D U D U                            
Solo Part One - GUITAR 2

e|------------------------------------------------------------------------|X
B|------------------------------------------------------------------------|X
G|-7-7-7-10-10-10------------------7-7-7-7-7-7-7-7--7-7-7-7-7-7-7-7-------|
D|-7-7-7-10-10-10-10-10-10-5-5-5-5-7-7-7-7-7-7-7-7--7-7-7-7-7-7-7-7-------|
A|-5-5-5-8--8--8--10-10-10-5-5-5-5-5-5-5-5-5-5-5-5--5-5-5-5-5-5-5-5-------|
E|----------------8--8--8--3-3-3-3----------------------------------------|
   D U D D  U  D  D  U  D  D U D U D U D U D U D U  D U D U D U D U

e|------------------------------------------------------------------------|X
B|------------------------------------------------------------------------|X
G|----------------------------------5-5-5-5-5-5-5-5--5-5-5-5-5-5-5-5------|
D|-3-3-3-3-3-3-3-3--3-3-3-3-3-3-3-3-5-5-5-5-5-5-5-5--5-5-5-5-5-5-5-5------|
A|-3-3-3-3-3-3-3-3--3-3-3-3-3-3-3-3-3-3-3-3-3-3-3-3--3-3-3-3-3-3-3-3------|
E|-1-1-1-1-1-1-1-1--1-1-1-1-1-1-1-1---------------------------------------|
   D U D U D U D U  D U D U D U D U D U D U D U D U  D U D U D U D U

e|------------------------------------------------------------------------|X
B|------------------------------------------------------------------------|X
G|------------------------------------------------------------------------|X
D|-7-7-7-7-7-7-7-7--7-7-7-7-7-7-7-7---------------------------------------|
A|-7-7-7-7-7-7-7-7--7-7-7-7-7-7-7-7---------------------------------------|
E|-5-5-5-5-5-5-5-5--5-5-5-5-5-5-5-5---------------------------------------|
   D U D U D U D U  D U D U D U D U 

Solo Part Two

e|------------------------------------------------------------------------|X
B|------------------------------------------------------------------------|X
G|------------------------------------------------------------------------|X
D|------------------------------------------------------------------------|X
A|-5--5-5-5--5-7-8-7-5----5------5-7-7-5-4-5------------------------------|
E|---------------------8----8--8------------------------------------------|

Outro

e|------------------------------------------------------------------------|X
B|-12-12-12-12-12-12-12-12------------------------------------------------|
G|------------------------------------------------------------------------|X
D|------------------------------------------------------------------------|X
A|------------------------------------------------------------------------|X
E|------------------------------------------------------------------------|X
   D  U  D  U  D  U  D  U 
 

Intro  - x1

Verse  - x8

Chorus - x1

Intro  - x1

Verse  - x8

Chorus - x1

Intro  - x1

Solo Part One - x1

Solo Part Two - x19	

Outro - x12

----------------------------------------------------------------------------

Please Rate!
Suggest correction
Give kudos to tab author, rate the tab!
1 2 3 4 5
comments
print report bad tab
1 comment total.
0 reply
Kozed 10 Dec 22, 2007 04:46 AM

Outro smells and so does solo

guest
You may want to rate the tab now too:
select rating
Wanna post a correction for this tab? Suggest correction