Oops, an error
Loading. Please wait.

Luna Lovers chords

268 views 9 this week
no commentswrite comment
1 2 3 4 5
3 more votes to show rating
add to favorites
×
Save as Personal and add changes to this tab that will be seen only by you. Learn more ›
×
You can save this tab as Personal to edit and correct it or add notes. All changes will be seen only by you. Learn more »
launch autoscroll
font size
0
reset
transpose
0
reset
display chords
guitar tuner
edit
Autoscroll
slow
fast
+/-
esc
set tempo
stop
Author
Difficulty
Strumming Is this strumming pattern correct? Yes No
180 bpm
1
 
 
2
 
 
3
 
 
Listen
Las Cafeteras - Luna Lovers
    video: https://www.youtube.com/watch?v=NZGznPUC43k
    kexp: https://www.youtube.com/watch?v=mKdux-wy9bI

This song is just Gm F C Dm all the way through (key Dm).
It's played on some strange Mexican instruments that I had never heard 
of until figuring this tab out.

The 8-string used for the rhythm is a jarana jarocha with the typical 
5 courses: single string, three double strings and another single,
tuned G C E A G but you can play the chords on a guitar or uke.
It's a down up 3 beat rhythm with a swing to the beat.

The 4-strings are probably jarana jarocha requintos tuned almost
like the guitar's 2nd-5th strings, except the B is tuned up a half to C.
It's a little easier to play that way but I've tabbed it standard.
If you tune A2•D3•G3•C3 like they do just play one fret down on the B-string. 
The lead 4-string continues fingerpicking like the intro into the song.
He continues the solo into the last verse. Even a low-G tenor uke doesn't 
go low enough to play the notes on the D-string, but you could pick out 
the chords in your own way.
--Art

       Guitar    Uke     Requinto  Jarocha
Gm     355333    0231    1002      02310
F      133211    2010    0320      30103
C      032010    0003    3200      00030
Dm     x00231    2210    0322      02100


Standard guitar tuning, no capo


[Intro]
   Gm        F            C            Dm                    
x|---------------------------------------------------------------|
B|-----3-3------1---1--------1---------------3-------------------|
G|-0--3-3--------2---2--2-----0--0---0-----2--2------------------|
D|-----------3------------2-------2----0--3-----3----------------|
A|---------------------------------------------------------------|
x|---------------------------------------------------------------|

   Gm        F            C            Dm                    
x|---------------------------------------------------------------|
B|-----3--3-----1---1--------1---------------3-------------------|
G|-0--3--3--3----2---2--2-----0--0---0-----2--2------------------|
D|-----------3------------2-------2----0--3-----3----------------|
A|---------------------------------------------------------------|
x|---------------------------------------------------------------|

Gm        F   C   Dm
Walk with me  lu--na
Gm        F   C   Dm
Walk with me  lu--na

[Verse 1]
       Gm    F            C         Dm
So the story goes that my heart met yours
    Gm         F         C      Dm
You touched my soul it's you I adore
     Gm        F         C         Dm
It's your beauty where I feel most free
     Gm      F           C        Dm
It's you and me and it's plain to see

  Gm         F        C      Dm
I do I do, I do I do, I love you
  Gm         F        C      Dm
I do I do, I do I do, I love you

[Chorus]
         Gm        F       C           Dm
Wont you walk with me Luna through the dark
         Gm        F       C           Dm
Wont you walk with me Luna through the park
         Gm      F            C    Dm
Wont you take my hand help me understand
Gm      F            C            Dm
Take my hand walk me through your land
Gm      F       C       Dm
                Luna Luna

[Verse 2]
       Gm        F    C         Dm
Well I travel so far across the land
        Gm     F   C   Dm
And I'm asking you  to stand
Gm          F                 C          Dm
Stand by my side (by my side)  and come along 
     Gm          F                      C           Dm
With me down the river (down the river) singing the song

[Chorus]
         Gm        F       C           Dm
Wont you walk with me Luna through the dark
         Gm        F       C           Dm
Wont you walk with me Luna through the park
         Gm             F            C    Dm
Wont you take (take) my hand help me understand
         Gm             F            C            Dm
Wont you take (take) my hand walk me through your land
Gm        F       C       Dm
                  Luna Luna

[Interlude]
Gm   F  C    Dm  x3

[Solo]
   Gm            F              C                   Dm                    
x|-----------------------------------------------------------------------|
B|-13---11-10----13---11-10--------10-11--10-13--15-13--11-10--11-10--13-|
G|------------10------------10--10---------------------------------------|
D|-----------------------------------------------------------------------|
A|-----------------------------------------------------------------------|
x|-----------------------------------------------------------------------|

   Gm            F              C                   Dm                    
x|-----------------------------------------------------------------------|
B|-13---11-10----13---11-10--------10-11--10-13--11-15--13-11--10-11--10-|
G|------------10------------10--10---------------------------------------|
D|-----------------------------------------------------------------------|
A|-----------------------------------------------------------------------|
x|-----------------------------------------------------------------------|

[Verse 3]
          Gm         F     C    Dm
Hope this night will never ever end
      Gm     F  C         Dm
Maybe we can be more than friends
        Gm       F         C     Dm
Tell me words of truth and mystery
        Gm     F         C    Dm
Keep me here inside this memory

[Outro]
          Gm       F             C      Dm
Where the grass is green and the sky is high
          Gm      F                C             Dm
Won't you tell me tonight that you won't say goodbye 
          Gm           F         C           Dm
And we'll fly, We will fly, Luna through the sky
        Gm           F         C           Dm
We will fly, we will fly, Luna through the sky

Gm        F    C     Dm
  We will fly- 
Gm        F       C    Dm
  We will fly, Luna Luna
Gm        F       C    Dm
  We will fly, Luna Luna
              Gm        F   C   Dm
Lu-na  Lu-na (walk with me, Lu--na)
              Gm        F   C   Dm
Lu-na  Lu-na (walk with me, Lu--na)
      Gm         F          C      Dm
Aaii (I do I do, I do I do, I love you)
      Gm         F          C      Dm
Aaii (I do I do, I do I do, I love you)
N.C.
(I do I do, I do I do, I love you)
Suggest correction
Creating personal tab
Creating personal tab
You can edit any tab online and save it as your Personal.

You can edit, replace or remove any tab part or add personal notes – all changes will be seen only by you.

Personal tabs can be accessed anytime from any device, even offline.
Learn more »
Give kudos to tab author, rate the tab!
1 2 3 4 5
comments
print report bad tab
guest
You may want to rate the tab now too:
select rating
Wanna post a correction for this tab? Suggest correction