Oops, an error
Loading. Please wait.

Latino Tab

94 views 3 this week
no commentswrite comment
1 2 3 4 5
3 more votes to show rating
add to favorites
launch autoscroll
font size
0
reset
how to read this tab
guitar tuner
×
Best way to learn
"Latino"
Autoscroll
slow
fast
+/-
esc
set tempo
stop
ahi va...

G|-----------------------------------------------
D|-----------------------------------------------
A|-7-8-7-8-7-5-2----PM|-7-8-7-5-2----PM|-7-8-7-5-
E|-5-6-5-6-5-3-0----0-0-5-6-5-3-0----0-0-5-6-5-3-

               soy  latino,  asndi........
G|-------------------------------------------------
D|-------------------------------------------------
A|-7-8-7-8-7-5--PM.....|5---PM.....|4---PM.....|3--
E|-5-6-5-6-5-3--0-0-0-0-3---0-0-0-0-2---0-0-0-0-1--

                   soy un raza jod.....
e|--------------------------19--18-------15-------14--
B|----------------------------------------------------
G|----------------------16-----------12-------11------
D|----------------------------------------------------
A|-7-8-7-8-7-5----------------------------------------
E|-5-6-5-6-5-3-0--<12>--------------------------------

G|--------------------------------------------------
D|--------------------------------------------------
A|-PM....|-5---PM....|-5---PM....|-5---7-8-7-8-7-5--
E|-0-0-0-0-3---0-0-0-0-3---0-0-0-0-3---5-6-5-6-5-3--

soy de
   raza blanca....
G|---------------------------------------------------
D|---------------------------------------------------
A|----------------------------/7----/7-/6-/5-/4-/3--
E|-/7-0-3-5---3--5-5h6--5--3-------------------------

soy un
perro muy
malo.....
e|---C/-WAH------------------------------
B|---------------------------------------
G|-9--8--7--5---2b-2h0--2b-2h0--2b-2h0---
D|---------------------------------------

   wwwwwwwahh  wwwwwwwahh  wahhh wahh  wahhhhh
e|--10.......---10.......---12----12----12----
B|--------------------------15b---15b---15b---
G|--------------------------------------------
D|--------------------------------------------

asi es el tema.... temaszso...
Suggest correction
Give kudos to tab author, rate the tab!
1 2 3 4 5
comments
print report bad tab
guest
You may want to rate the tab now too:
select rating
Wanna post a correction for this tab? Suggest correction