Oops, an error
Loading. Please wait.

Presos De Tu Sociedad Chords

16 views 1 this week
no commentswrite comment
1 2 3 4 5
3 more votes to show rating
add to favorites
launch autoscroll
font size
0
reset
transpose
0
reset
display chords
guitar tuner
×
Best way to learn
"Presos De Tu Sociedad"
Autoscroll
slow
fast
+/-
esc
set tempo
stop
TAB 1

E  ||------------------------------------------
B  ||------------------------------------------
G  ||------------------------------------------
S  ||-----------------------------------------1-2-1-2-1-2-1-
G  ||--------4-4-2-2-----------------4-4---------------
E  ||-4--4--------------2-2--4--4-------------------
__/


__           TAB 2

E   ||-------------------------------------
B  ||-------------------------------------
G  ||-----1-0--------------------1-0---------------  (SIGUE ABAJO)
S  ||-----------1-----------------------1-------------
G  ||--------------1-1-1-2---------------1-2-1-1-2-1-
E  ||-4------------------------4-------------------
__/


e------------------------------------------------------------------
B----------------------------------------------0--------0--------
G-----1-0-----------------1-0---------1-3---3----3---3---3-
D-----------1-------------------1-1-2---------------------------
G-------------1-1-1-2-------------------------------------------
E---4--------------------4----------------------------------------


TAB 1 (DOS VECES) TAB 2 (DOS VECES)  KEDA EN SOL#m (16 TIEMPOS)

G#m                  F# 
 Con tanto frío no se puede pensar
G#m                     F# 
 Hay tanto viento que no puedo ni armar.
G#m                  F#             G#m
 Con tanta yuta no se puede fumar tranquilo
                         F# 
 ni en la calle o en la puerta de tu hogar.


(est)ASI O SOBRE TAB 2
G#m                      F# 
 Por eso digo que hay que legalizar
        G#m                 F# 
 la marihuana que no hace tan mal
 G#m               F# 
 como cuando te encarcelan
G#m              F# 
 como cuando te la dan.


G#m                  F# 
 Con tanto frío no se puede pensar
G#m                  F# 
 con tanta yuta no se puede caminar
G#m                    F# 
 hay tantos chicos privados de libertad
      G#m          F# 
 son todos presos de tu sociedad.


(est)
 Por eso digo que hay que legalizar
 la marihuana que no hace tan mal;
 como cuando te encarcelan;
 como cuando te la dan.


DO#m   (16 TIEMPOS, EL RASGUIDO ES MAS PODRIDO)


G#m                   F# 
 La marihuana habrá que legalizar ya
G#m                   F# 
 y así poder pensar con más libertad.
G#m                     F# 
 Que uno decida lo que quiere en verdad
           G#m
 si estar vivo, si estar loco,
            F# 
 si estar preso si no estar,
(BIS)


TAB 1 (SOLO DE GUITARRA)


                        G#m
 No se puede fumar tranquilo
                           F# 
 ni en la calle ni en la puerta de tu hogar.


(est)
 Por eso digo que hay que legalizar
 la marihuana que no hace tan mal;
 como cuando te encarcelan;
 como cuando te la dan.

TAB 2(UNA VEZ)  TAB 1(DOS VECES)  TAB 2(DOS VECES)

SILENCIO TERMINA CON TAB 1


ESPERO KE LES SEA DE UTILIDAD =)
ROCIO!!!!
CUALKIERO CONSULTA CRITICA O DEMAS rorro_cclsqa@
Suggest correction
Give kudos to tab author, rate the tab!
1 2 3 4 5
comments
print report bad tab
guest
You may want to rate the tab now too:
select rating
Wanna post a correction for this tab? Suggest correction