Oops, an error
Loading. Please wait.

Skansancio Chords

8 views 1 this week
no commentswrite comment
1 2 3 4 5
3 more votes to show rating
add to favorites
launch autoscroll
font size
0
reset
transpose
0
reset
display chords
guitar tuner
Autoscroll
slow
fast
+/-
esc
set tempo
stop
Help us to improve Ultimate-Guitar.com Take our survey!
×
Aca dejo Skansancio corregida, creo q esta tal cual ...

intro:   Am-G#- x 4

Am         G#
no hay que ser valiente
Am      G#
para salir a trabajar
Am        G#
uno no es un cobarde
Am        G#
por no salir a transpirar


Am
todo el tiempo con la pala y el balde
G#
el cemento que se seca y no alcanza
Am
el calor del mediodia y el hambre
G#
y las ganas de ir corriendo a mi casa  X2


 Am-G#

e--------------------------------------
B-------3-5-3---------------5-------
G--2-5---------5------5-7----7-5--
D------------------6------------------
A--------------------------------------
E--------------------------------------

e-------------------------------------------
B--------3-5-3------8-6----------5------
G--2-5---------5----------5-7-5--------
D-------------------------------------------   X2
A--------------------------------------------
E--------------------------------------------


Am-G# al Ska, despues se copan con la onda punk picando en el Am
y cierra en G#.

El tema se repite en esos acordes y de acuerdo a los ritmos q lleva,
escuchen el tema,

Cdo termina haciendo Ska despues de cortar en el G# toca los armonicos
del traste 12 con la 1°,2° y 3er cuerda ...
Suggest correction
Give kudos to tab author, rate the tab!
1 2 3 4 5
comments
print report bad tab
guest
You may want to rate the tab now too:
select rating
Wanna post a correction for this tab? Suggest correction