Oops, an error
Loading. Please wait.

Skansancio Tab

18 views 1 this week
no commentswrite comment
1 2 3 4 5
3 more votes to show rating
add to favorites
launch autoscroll
font size
0
reset
how to read this tab
guitar tuner
Autoscroll
slow
fast
+/-
esc
set tempo
stop
intro:Cm-G#m- x 4

Cm         G#m
no hay que ser valiente
Cm      G#m
para salir a trabajar
Cm        G#m
uno no es un cobarde
Cm        G#m
por no salir a transpirar


Cm
todo el tiempo con la pala y el balde
G#m
el cemento que se seca y no alcanza
Cm
el calor del mediodia y el hambre
G#m
y las ganas de ir corriendo a mi casa  X2

lorepite otra vez

esta parte se distorciona:Cm-G#m

e--------------------------------------
B-------3-5-3---------------5-------
G--3-5---------5------5-7----7-5--
D------------------6------------------
A--------------------------------------
E--------------------------------------

e-------------------------------------------
B--------3-5-3------8-6----------5------
G--3-5---------5----------5-7-5--------
D-------------------------------------------   X2
A--------------------------------------------
E--------------------------------------------


sigue todo igual pero con ritmo de ska
para corregirme escriban a noniman_17@
Suggest correction
Give kudos to tab author, rate the tab!
1 2 3 4 5
comments
print report bad tab
guest
You may want to rate the tab now too:
select rating
Wanna post a correction for this tab? Suggest correction