Oops, an error
Loading. Please wait.

Petruska Tab

37 views 1 this week
no commentswrite comment
1 2 3 4 5
3 more votes to show rating
add to favorites
launch autoscroll
font size
0
reset
how to read this tab
guitar tuner
Autoscroll
slow
fast
+/-
esc
set tempo
stop
guitarra 1: empiesa con este acorde
-7------------------
---8----------------
-----9--------------
-----9--------------
-7------------------
--------------------
guitarra 2:punteo

-----------------------------
-----------------------------
-----------------------------
-------7-9-10-9-7-9-10-9-7-9-
7-9-10-----------------------      <---
-----------------------------         -
                                      -
-----------------------------         - x 2
-----------------------------         -
-----------------------------         -
-------7-9-10-12-10-9--------      <---
7-9-10-----------------------
-----------------------------

-----------------------------
-----------------------------
-----------------------------
-14-12-10-9-10-12-10-9-------
-----------------------------
-----------------------------

-----------------------------
-----------------------------
-----------------------------
-14-12-10-9------------------    x2
-----------------------------
-----------------------------

cuando canta hace el acorde del principio,y siempre en algunaspartes
hace el punteo del principio,salvo en el estribillo que hace este
acorde:
-----------------------------
---7-------------------------
---7-------------------------
-5---------------------------

en el minuto 2:46 para y hace este punteo:

---7-------------------
---8-------8-----8-----
---9---------9-----9---
---9-----------9-----9-
-7---------------------
-----------------------
despues estos dos acordes.
-7-------.------
---8-----.------
----9---.-------
-----9---.----9-
-7-------.----9-
---------.--7---

sigue cantando y despues hace el solo y termina en el estribillo
Suggest correction
Give kudos to tab author, rate the tab!
1 2 3 4 5
comments
print report bad tab
guest
Wanna post a correction for this tab? Suggest correction