Oops, an error
Loading. Please wait.

La Rosarina chords

version 3
version 3

Whole song

53 views 1 this week
no commentswrite comment
1 2 3 4 5
3 more votes to show rating
add to favorites
×
Save as Personal and add changes to this tab that will be seen only by you. Learn more ›
×
You can save this tab as Personal to edit and correct it or add notes. All changes will be seen only by you. Learn more »
launch autoscroll
font size
0
reset
transpose
0
reset
display chords
guitar tuner
edit
Autoscroll
slow
fast
+/-
esc
set tempo
stop
Strumming
There is no strumming pattern for this song yet. and get +5 IQ
INTRO: Dm     C     A#
      (Dm)  (C)  (A#)


Dm (Dm)
|------------------1-----------------------------------|
|-------------3------3----3----------------------------|
|----------2----2------2-------------------------------|
|-------0----------------------------------------------|
|------------------------------------------------------|
|------------------------------------------------------|

C (C )
|---------------------0--------------------------------|
|---------------1---------1----1-----------------------|
|------------0----0---------0--------------------------|
|------------------------------------------------------|
|-------3----------------------------------------------|
|------------------------------------------------------|

A# (La#M)
|----------------1----------------------1--------------|
|----------3------3-----3-------3----------3---3-------|
|-------------3------3--------------3---------3--------|
|-------3---------------------3------------------------|
|------------------------------------------------------|
|------------------------------------------------------|

Dm                   C                    A#
Ella buscaba en su armario, porque habia perdido la razon
Dm                   C                    A#
yo exprimia disccionarios, para poder hacer una cancion
Dm                   C                    A#
no me acuerdo muy bien cuantos besos dejamos en cada esquina
Dm                   C                    A#
pero imposible olvidarme, de aquel cuarto donde aquella noche
F            C
subio,la adrenalina

       G
Y se juntaron rosario y la capital
      A#
se juntaron el bien y el mal,
      F                                  C
se juntaron dos almas en una sola, se juntaron sabina y piazola

     G                                          A#
se junto una religion que era puro corazon con otra que nunca existio
     F                                    C
se juntaro dos camas y no alcanzaba para tanto fuego tanta accion
           Dm Dm C A# x2
tanto descontrol


Dm              C             A#
elejimos el colchon mas chico, y parecio de dos plazas

Dm                     C             A#
cuando el colchon termino bienvenido fue el piso del comedor de su casa
Dm              C               A#
a cada beso caia una estrella, cada arañazo calmaba el dolor

Dm                  C              A#
cuando me acuerdo de ella, levanto mi baso y brindo a donde
           F                   C
quiera que estes, por nuestra cancion

G
se juntaron rosario y la capital

       A#
se juntaron el bien y el mal

      F                                 C
se juntaron dos almas en una sola, se juntaron sabina y piasola

      G                                       A#
se junto una religion que era puro corazon con otra que nunca existio


    F                                      C
se juntaron dos camas y no alcanzaba para tanto fuego tanta
                   Dm Dm C A# x2
accion tanto descontrol

            
            
Suggest correction
Creating personal tab
Creating personal tab
You can edit any tab online and save it as your Personal.

You can edit, replace or remove any tab part or add personal notes – all changes will be seen only by you.

Personal tabs can be accessed anytime from any device, even offline.
Learn more »
Give kudos to tab author, rate the tab!
1 2 3 4 5
comments
print report bad tab
guest
Wanna post a correction for this tab? Suggest correction