Oops, an error
Loading. Please wait.

Destellos tab

20 views 1 this week
no commentswrite comment
1 2 3 4 5
3 more votes to show rating
add to favorites
×
Save as Personal and add changes to this tab that will be seen only by you. Learn more ›
×
You can save this tab as Personal to edit and correct it or add notes. All changes will be seen only by you. Learn more »
launch autoscroll
font size
0
reset
how to read this tab
guitar tuner
edit
Autoscroll
slow
fast
+/-
esc
set tempo
stop
Intro:

Ritmica:
LA - DO x 2

Melodía sobre versos 1 y2 de cada estrofa:

1--------------------------------------------|
2-----8-----8-----8---8-----------8---8------|
3-5/7---5/7---7/9---9---9-0---7/9---9---9-0--|
4--------------------------------------------|
5--------------------------------------------|
6--------------------------------------------|

1----------------------------------------------------------|
2-----8---8-------6---6---------8---8-----------8---8------|
3-5/7---7---7---5---5---5---5/7---7---7-0---7/9---9---9-0--|
4----------------------------------------------------------|
5----------------------------------------------------------|
6----------------------------------------------------------|

Melodía sobre versos 3 y 4 de cada estrofa:

1-12~-----12~------12~-----12~----|
2----10~--------------10~---------|
3------------12~--------------12~-|
4---------------------------------|
5---------------------------------|
6---------------------------------|

Melodía sobre vesos 5 y 6 de cada estrofa:

1--------------------------------------|
2---8~--8~----8~--8~----8~--6~--8~--8~-|
3-7~--7~----9~--9~----7~--5~--9~--9~---|
4--------------------------------------|
5--------------------------------------|
6--------------------------------------|

Verso 1

REm                   DO
Despierta que está el día,
REm      FA    DO
a ver si hoy podemos
   LAm            DO
destellos de la mañana
     LAm            DO
cubriéndote con el cielo
REm              DO
nunca lo supiste eso,
REm         FA   DO
nunca lo supiste eso


Puente LA - DO x 2


Verso 2

REm               DO
Si al fin nunca creía,
REm     FA    DO
te miro hoy y puedo
  LAm             DO
seremos dueños de algo,
   LAm             DO
la vida es un sentimiento
REm                  DO
nunca más te olvides esto,
REm            FA    DO
nunca más te olvides esto


Puente cantado:

LAm            DO
Baja, vuelve serena
LAm            DO
baja, vuelve serena

Verso 3

REm                   DO
Despierta que está el día,
REm       FA    DO
verás que hoy podemos
REm
Despierta, despierta,
DO
despierta, despierta,
REm      FA         DO
Despierta, despierta
REm      FA         DO
Despierta, despierta

            
            
Suggest correction
Creating personal tab
Creating personal tab
You can edit any tab online and save it as your Personal.

You can edit, replace or remove any tab part or add personal notes – all changes will be seen only by you.

Personal tabs can be accessed anytime from any device, even offline.
Learn more »
Give kudos to tab author, rate the tab!
1 2 3 4 5
comments
print report bad tab
guest
Wanna post a correction for this tab? Suggest correction