Oops, an error
Loading. Please wait.

Menos Mal tab

72 views 1 this week
no commentswrite comment
1 2 3 4 5
3 more votes to show rating
add to favorites
×
Save as Personal and add changes to this tab that will be seen only by you. Learn more ›
×
You can save this tab as Personal to edit and correct it or add notes. All changes will be seen only by you. Learn more »
launch autoscroll
font size
0
reset
how to read this tab
guitar tuner
edit
Autoscroll
slow
fast
+/-
esc
set tempo
stop
INTRO:    C#              C#/b5           C#sus4          Bbm
e-|-------4-----4-|---------------|---------------|----------------|-
B-|---------------|-------8-----8-|-------7-----7-|---------6----6-|-
G-|-----6---6-----|-----6---6-----|-----6---6-----|-------6--6-----|-
D-|---6-------6---|---5-------5---|---4-------4---|-----8------8---|-
A-|-4-------------|-4-------------|-4-------------|---8------------|-
E-|---------------|---------------|---------------|-6--------------|-
                                                                              
    Bbm/maj7          Bbm7              Bbm7
e-|-----------------|-----------------|-----------------|-
B-|---------6-----6-|---------6-----6-|---------6-----6-|-
G-|-------6---6-----|-------6---6-----|-------6---6-----|-
D-|-----7-------7---|-----6-------6---|-----6-------6---|-
A-|---8-------------|---8-------------|---8-------------|-
E-|-6---------------|-6---------------|-6---------------|-
    Ebm7              Eb7/9             G#                G#7   
e-|-----------------|-----------------|-----------------|-----------------|-
B-|---------7-----7-|---------6-----6-|---------4-----4-|---------4-----4-|-
G-|-----6-----6-----|-----6-----6-----|-------5---5-----|-------5---5-----|-
D-|---8---8-----8---|---8---8-----8---|-----6-------6---|-----4-------4---|-
A-|-6---------------|-6---------------|---6-------------|---6-------------|-
E-|-----------------|-----------------|-4---------------|-4---------------|-
C#         C#/b5
a pesar de hoy,
C#sus4       Bbm
tienes que seguir,       
Bbmmaj7
sabiendo muy bien    
Bbm7        Ebm7    Eb7/9
que no podés mentir     
G#   G#7
ni a ti. 

Ya no importa, 
ya no pienses más, 
no ves que igual, 
todo va a pasar, 
menos mal. 

E                 C#
Alimentándose del aire
E                    Ebm7
buscando cosas que vaciar,
          G#        C#      
ya no hay más menos mal. 

Inter: acordes de la intro rasgueados
Ya no hay nadie, 
todos en su hogar, 
esta soledadque me empieza a hablar,
qué dirá ? 
Cerrando todas las ventanas, 
cerrando todo en corazón, al dolor
pero... 
A pesar de hoy, 
tienes que seguir
sabiendo muy bien
que no podés mentir
ni a ti, 
ni a ti.

            
            
Suggest correction
Creating personal tab
Creating personal tab
You can edit any tab online and save it as your Personal.

You can edit, replace or remove any tab part or add personal notes – all changes will be seen only by you.

Personal tabs can be accessed anytime from any device, even offline.
Learn more »
Give kudos to tab author, rate the tab!
1 2 3 4 5
comments
print report bad tab
guest
Wanna post a correction for this tab? Suggest correction