Oops, an error
Loading. Please wait.

Senderos chords

35 views 1 this week
no commentswrite comment
1 2 3 4 5
3 more votes to show rating
add to favorites
×
Save as Personal and add changes to this tab that will be seen only by you. Learn more ›
×
You can save this tab as Personal to edit and correct it or add notes. All changes will be seen only by you. Learn more »
launch autoscroll
font size
0
reset
transpose
0
reset
display chords
guitar tuner
edit
Autoscroll
slow
fast
+/-
esc
set tempo
stop
Strumming
There is no strumming pattern for this song yet. and get +5 IQ

Gm       C
senderos de victoria
Gm          C
las sombras de las aguas
Gm           C
pensaba demasiado
Gm                C
hasta tratar de tocarte

Am        D
no podia distingir
Am                 D
hechos del mundo real
Am                D
yo te podria enfocar
Am                     D
hasta los sitios sin niebla

riff 1 x 4

sedientos de saber
existira algun modo
talves tengo un error
choque de hombres y sombra

el destino no hace acuerdos
el dolor tapa la tierra
el mundo es muy extraño
el mundo es muy extraño

riff 1 x 4

viviendo de los sueños
A libertad resucita
desgarrados de amor
el paraiso perdido

cabalge por el hielo
remolinos de silencio                    B
ojos clamando al cielo
ojos clamando al cielo

riff 2 x 4 (bata)

riff 2 x 2

escirbir, soñar por donde empezar
sabes la lección, hora de volver
a partir de hoy no lo vuelvo hacer,
vida que se pierde, tiempo que se fué,                EST. X 2
ciegos de saber, contra la pared,
todos te diran que tenes que hacer,
hasta los amigos pueden traicionar,
hasta las palabras se pueden cambiar.

riff 2 x 10

   G        D              F          Bb       A
|-----------------------------------------------------|
|-----------------------------------------------------|
|-----------7-7-7-7-7-7-7-------------3-3-3-3--2-2-2--|riff 1
|--5--5--5--7-7-7-7-7-7-7--3-3-3-3-3--3-3-3-3--2-2-2--|
|--5--5--5--5-5-5-5-5-5-5--3-3-3-3-3--1-1-1-1--0-0-0--|
|--3--3--3-----------------1-1-1-1-1------------------|
   G        D              Bb         C        Bb
|-----------------------------------------------------|
|-----------------------------------------------------|
|-----------7-7-7-7-7-7-7--3-3-3-3-3--5-5-5-5--3-3-3--|riff 2 y EST.
|--5--5--5--7-7-7-7-7-7-7--3-3-3-3-3--5-5-5-5--3-3-3--|
|--5--5--5--5-5-5-5-5-5-5--1-1-1-1-1--3-3-3-3--1-1-1--|
|--3--3--3--------------------------------------------|
Suggest correction
Creating personal tab
Creating personal tab
You can edit any tab online and save it as your Personal.

You can edit, replace or remove any tab part or add personal notes – all changes will be seen only by you.

Personal tabs can be accessed anytime from any device, even offline.
Learn more »
Give kudos to tab author, rate the tab!
1 2 3 4 5
comments
print report bad tab
guest
Wanna post a correction for this tab? Suggest correction