Oops, an error
Loading. Please wait.

Transparente tab

44 views 1 this week
no commentswrite comment
1 2 3 4 5
3 more votes to show rating
add to favorites
×
Save as Personal and add changes to this tab that will be seen only by you. Learn more ›
×
You can save this tab as Personal to edit and correct it or add notes. All changes will be seen only by you. Learn more »
launch autoscroll
font size
0
reset
how to read this tab
guitar tuner
edit
Autoscroll
slow
fast
+/-
esc
set tempo
stop
intro:

1---------------------------------------------
2---------------------------------------------
3-------------------5-------------------------
4---55-----3-5--5-5-------55-----3-5--8-8-7---
5-------5---------------------5---------------
6---------------------------------------------

1---------------------------------------------
2---------------------------------------------
3------------------5--------------------------
4---55----3-5-5-5---------55-----3-5----------
5-------5---------------------5---------------
6---------------------------------------------

    Gm         C             Gm                 C
1------------------------------------------------
2---33-3-3/1---1-------------33-3-3/1------------
3------------3----0-2-3---------------3-0------0-
4------------------------------------------0-3---
5------------------------------------------------
6------------------------------------------------


Gm                C
  Haceme transparente,
Gm                C
  decime por donde es,
Gm                 C
  los huecos de la mente,
Gm               C
  confunden al andar,
Gm                 C
  no es facil escucharte,
   Gm                   C
no es, habiendo tanto dolor,
                Gm
donde es que estas?
F              Gm
 Donde es que estas? (x3)
F             Gm

Gm
  Los dias se arratran,

y no es un cuento,
C
cuando te quiero sentir,
Gm
es el camino o la trinchera,
C
para llegar a vos,
Gm
es el amor una respuesta,
C
o solo existes en la cabeza,
Gm
revolucion en los corazones,
C                   Gm
la frase linda para decir,
F              Gm
donde es que estas.(X3)


    Gm         C             Gm                 C
1------------------------------------------------
2---33-3-3/1---1-------------33-3-3/1------------
3------------3----0-2-3---------------3-0------0-
4------------------------------------------0-3---
5------------------------------------------------
6------------------------------------------------


Gm                C
  Haceme transparente,
Gm                C
  decime por donde es,
Gm                 C
  los huecos de la mente,
Gm               C
  confunden al andar,
Gm                 C
  no es facil escucharte,
   Gm                   C
no es, habiendo tanto dolor,
                Gm
donde es que estas?
F              Gm
 Donde es que estas? (x9)

            
            
Suggest correction
Creating personal tab
Creating personal tab
You can edit any tab online and save it as your Personal.

You can edit, replace or remove any tab part or add personal notes – all changes will be seen only by you.

Personal tabs can be accessed anytime from any device, even offline.
Learn more »
Give kudos to tab author, rate the tab!
1 2 3 4 5
comments
print report bad tab
guest
Wanna post a correction for this tab? Suggest correction