Oops, an error
Loading. Please wait.

Casi Las Cuatro Tab

9 views 1 this week
no commentswrite comment
1 2 3 4 5
3 more votes to show rating
add to favorites
×
Save as Personal and add changes to this tab that will be seen only by you. Learn more ›
×
You can save this tab as Personal to edit and correct it or add notes. All changes will be seen only by you. Learn more »
save as personal
new!
launch autoscroll
font size
0
reset
how to read this tab
guitar tuner
Autoscroll
slow
fast
+/-
esc
set tempo
stop
Intro:


E|----------------------------|
B|------------------3---------|
G|---------2-2----2-----------|
D|-2-2-2-4-----4--------------| D(X 2 al final)(el 2 y 3 del final son
A|----------------------------|  el D sin tocar la ultima
E|----------------------------|  cuerda ya q no es necesario)


E|----------------------------|
B|----------------------------|
G|---2-2-2-4-2----------------| A(x 2)
D|-------------4-0-2-2--------|
A|----------------------------|
E|----------------------------|


E|----------------------------|
B|----------------------------|
G|----------------------------|
D|-2-2-2-4-2---0-2-2----------| Em(x 2)
A|-----------4----------------|
E|----------------------------|


E|----------------------------|
B|----------------------------|
G|----------------------------|
D|----------------------------| A(x 2)
A|-2-2-2-4-2-----0-0----------|
E|-----------4-0--------------|


                       D(x 2)
No sé de dónde habrá salido, no sé
                     A(x 2)
En que momento atravesó el jardín
                     Em(x2)
Así, como una hojita de papel
               A(x2)
Pero quiero saber

                        D(x 2)
Quiero saber porque no puedo llegar
                    A(x 2)
Al rinconcito donde sé que está
                          Em(x 2)
Cuando a la noche la quiero encontrar
                   A(x 2)
Siempre sale algo mal

                      D(x 2)
Entonces dice ya no puedo más
                               A(x 2)
Se encierra en su pieza y se pone a llorar
                        Em(x 2)
Cada vez que llamo dice que no está
                       A(x 2)
Cada vez que llego se va.


Entonces dice...


Repite intro con la misma base

                          D(x 2)
Casi las cuatro  y no me puedo dormir
                     A(x 2)
Esta novela es mucho para mí
                        Em(x 2)
Agarro el saco y sueño con salir
                 A(x 2)
Y que ella esté ahí

                       D(x 2)
No sé de dónde habrá salido, no sé
                     A(x 2)
En que momento atravesó el jardín
                     Em(x 2)
Así, como una hojita de papel
               A(x 2)
Pero quiero saber


Pero ella dice...

Pero ella dice...


Solo de saxo con base D D A A Em Em D D


Pero ella dice...(batería sola)

Pero ella dice...

Final en A
Suggest correction
Give kudos to tab author, rate the tab!
1 2 3 4 5
comments
print report bad tab
guest
Wanna post a correction for this tab? Suggest correction