Oops, an error
Loading. Please wait.

Las Chicas De Bond Street Tab

22 views 1 this week
no commentswrite comment
1 2 3 4 5
3 more votes to show rating
add to favorites
launch autoscroll
font size
0
reset
how to read this tab
guitar tuner
×
Best way to learn
"Las Chicas De Bond Street"
Autoscroll
slow
fast
+/-
esc
set tempo
stop
Intro:

      G         Em
1--------------------
2-0-0-1-3--0-0-3-1-0-
3-0--------0---------X2
4--------------------
5--------------------
6-3--------0---------

Verso 1:

G            Em
No preguntes por mí
     C                       D
Acá todos bailan solos todos salen ausentes
G                  Em
La otra vez que te ví
      C                 D
No miré tus ojos, ni miré tus manos


Intermedio:

     G        Em
1-2------3-------
2---3------5---3-
3-----4------4---
4----------------
5----------------
6----------------

         C            D
1-8------------5h3-3h5-5-
2--8-7h5-7h5--7h5-5h7-7--
3------------------------
4------------------------
5------------------------
6------------------------

Verso 2(igual que verso 1):

Todos quieren salir
Las chicas de Bond Street compran ropa de cuero
Y se visten así
Y nunca miran tus ojos

Estribillo:

G              Em
No preguntes por mí
       C                 D
Voy a estar donde están todos
G               Em          C
Tu corazón de marfil no se rompe con nada
       D
No se rompe con nada


Solo:

     G        Em
1-2------3-------
2---3------5---3-
3-----4------4---
4----------------
5----------------
6----------------

         C            D
1-8------------5h3-3h5-5-
2--8-7h5-7h5--7h5-5h7-7--
3------------------------
4------------------------
5------------------------
6------------------------

     G        Em         C        D
1-2------3--------8h7-8-8--8h10-10-
2---3------5---3--------8--8h10-10-
3-----4------4---------------------
4----------------------------------
5----------------------------------
6----------------------------------


Verso 3(igual que verso 1):


Alguien toca un violín
Alguien sube la escalera cantando en vos baja
Hay mucha gente así
Que pasa mucho tiempo afuera

Puente:

C              D         C                    D    C
  Buscando no verte o soñando con volverte a ver


Solo de teclado: (G-Em-C-D)X4

Repite Verso 2

Repite Estribillo

Reipte solo de guitarra

Final: Intro - G
Suggest correction
Give kudos to tab author, rate the tab!
1 2 3 4 5
comments
print report bad tab
guest
You may want to rate the tab now too:
select rating
Wanna post a correction for this tab? Suggest correction