Oops, an error
Loading. Please wait.

Something tab

version 2
version 2

Whole song

by Lasgo
1,498 views 6 this week
no commentswrite comment
1 2 3 4 5
3 more votes to show rating
add to favorites
×
Save as Personal and add changes to this tab that will be seen only by you. Learn more ›
×
You can save this tab as Personal to edit and correct it or add notes. All changes will be seen only by you. Learn more »
launch autoscroll
font size
0
reset
how to read this tab
guitar tuner
edit
Autoscroll
slow
fast
+/-
esc
set tempo
stop
Author
Lasgo- Something

Chords:
 D    F#m1 F#m2  B   A
|----------------------|
|----------7-----------|
|-5--------6-----4---6-|
|-5---4----4-----4---7-|
|-3---4----------2---7-|
|-----2--------------5-|

Riff:
|--------------------------------------------------|
|--------------------------------------------------|
|--------------------------------------------------|
|------------4-4-4-4-42-2----------------------2-2-|2x
|5-5-5-5-5424----------4--5-5-5-5-5424----------4-4|
|-------------------------------------2-2-2-2-2----|
                                            
 D                      F#m1 
I don´t wanna say I´m sorry 
D                             F#m1
Cause I know there´s nothing wrong 
D                                   F#m1
Don´t be afraid there´s no need to worry 
D                                     F#m2
Cause my feelings for you are still strong 
D                                     F#m2 
Hold me in your arms and never let me go 
D                                     F#m2 
Hold me in your arms cause I need you so 


                   B                        D               
I can see it in your eyes there is something, 
    A                   F#m2
Something you wanna tell me 
             B                  D                    
See it in your eyes there is something, 
          A       F#m2
That you hide from me 
                   B                        D               
Is there a reason why there is something,   
    A                   F#m2
Something you wanna tell me 
                 B                        D                    
I see it in your eyes there is something, 
      A            F#m2
That you hide from me 

-----Break-----

Riff:
|--------------------------------------------------|
|--------------------------------------------------|
|--------------------------------------------------|
|------------4-4-4-4-42-2----------------------2-2-|2x
|5-5-5-5-5424----------4--5-5-5-5-5424----------4-4|
|-------------------------------------2-2-2-2-2----|


 D                      F#m1 
I don´t wanna say I´m sorry 
D                             F#m1
Cause I know there´s nothing wrong 
D                                   F#m1 
Don´t be afraid there´s no need to worry 
D                                     F#m2 
Cause my feelings for you are still strong 
D                              
Hold me in your arms 


BRIDGE: D F#m D F#m × 2 
|-------------------------------------------------------------|
|--------------- --7--7--7--7--7-------------------7--7--7--7-|
|--7--7--7--7--7--6--6--6--6--6----7--7--7--7--7--6--6--6--6--|
|-7--7--7--7--7--4--4--4--4--4----7--7--7--7--7--4--4--4--4---|
|5--5--5--5--5-------------------5--5--5--5--5----------------|
|-------------------------------------------------------------|

D                                     F#m2 
Hold me in your arms and never let me go 
D                                     F#m2 
Hold me in your arms cause I need you so 

                   B                        D               
I can see it in your eyes there is something, 
    A                   F#m2
Something you wanna tell me 
             B                  D                    
See it in your eyes there is something, 
          A       F#m2
That you hide from me 
                   B                        D               
Is there a reason why there is something,   
    A                   F#m2
Something you wanna tell me 
                 B                        D                    
I see it in your eyes there is something, 
      A            F#m2
That you hide from me 


Paul Hoogland(Netherlands)

            
            
Suggest correction
Creating personal tab
Creating personal tab
You can edit any tab online and save it as your Personal.

You can edit, replace or remove any tab part or add personal notes – all changes will be seen only by you.

Personal tabs can be accessed anytime from any device, even offline.
Learn more »
Give kudos to tab author, rate the tab!
1 2 3 4 5
comments
print report bad tab
guest
You may want to rate the tab now too:
select rating
Wanna post a correction for this tab? Suggest correction