Oops, an error
Loading. Please wait.

Te Veo bass

version 1
version 1

Whole song

Interactive

by Lasso
124 views 1 this week
no commentswrite comment
1 2 3 4 5
3 more votes to show rating
add to favorites
×
Save as Personal and add changes to this tab that will be seen only by you. Learn more ›
×
You can save this tab as Personal to edit and correct it or add notes. All changes will be seen only by you. Learn more »
launch autoscroll
font size
0
reset
guitar tuner
edit
Autoscroll
slow
fast
+/-
esc
set tempo
stop
Author
Difficulty
                        
Te veo                          
-Lasso-

                                          By: WuillLemus
Bajo



G||-------|-------|-------|-------|-------|-------|
D||-------|-------|-------|-------|-------|-------|
A||-------|-------|-------|-------|-------|-------|
E||-------|-------|-------|-------|-------|-------|


-------|-------|-------|-------|-------|-------|-------|
-------|-------|-------|-------|-------|-------|-------|
-------|-------|-------|-------|-------|-------|-------|
-------|-------|-------|-------|-------|-------|-------|


          Q    Q    Q    Q       Q    Q    Q    Q     
-------|----------------------|----------------------|
-------|-----------------1----|--4----1--------------|
-------|-------1----4---------|------------4----1----|
-------|--2-------------------|----------------------|


  Q    E  E   E  E  E  E      Q     Q    Q    Q     
--------------------6-----|--10--------------------|
-----------------6-----6--|--------11--------------|
--4-------1s--4-----------|--------------9----8----|
--------------------------|------------------------|


  W                   Q    Q    Q    Q     
-------------------|----------------------|
-------------------|-------1----3----4----|
--6----------------|--4-------------------|
-------------------|----------------------|


  W                    Q     Q    Q    Q     
-------------------|------------------------|
--3----------------|--(1)-------------------|
-------------------|---------1----4----1----|
-------------------|------------------------|


  E  E  E  E  E  E  E  E     E  E  E  E  E  E  E  E   
--------------------------|--------------------------|
--------------------------|--------------------------|
--4--4--4--4--4--4--4--4--|--4--4--4--4--4--4--4--4--|
--------------------------|--------------------------|


  E  E  E  E  E  E  E  E     Q    Q    Q    E  E   
--------------------------|-----------------------|
--------------------------|-----------------------|
--4--4--4--4--4--4--4--4--|--4---------4----------|
--------------------------|--------------------2--|


  H.           E  E     Q.     E  Q    Q     
---------------------|----------------------|
---------------------|----------------------|
---------------------|----------------------|
--2------------L--2--|--2------2--2----2----|


  H.           E  E     Q.     E  Q    Q     
---------------------|----------------------|
--1------------L--1--|--1------1--1----1----|
---------------------|----------------------|
---------------------|----------------------|


  H.           E  E     Q.     E  Q.     E   
---------------------|----------------------|
---------------------|----------------------|
--4------------L--4--|--4------4--4------4--|
---------------------|----------------------|


  Q.     E  Q.     E     Q.     E  Q    Q     
----------------------|----------------------|
----------------------|----------------------|
------------4------4--|------------4----4----|
--2------2------------|--2------2------------|


  H.           E  E     Q.     E  Q    Q     
---------------------|----------------------|
---------------------|----------------------|
---------------------|----------------------|
--2------------L--2--|--2------2--2----2----|


  H.           E  E     Q.     E  Q    S  E.   
---------------------|------------------------|
--1------------L--1--|--1------1--1----1s-4---|
---------------------|------------------------|
---------------------|------------------------|


  H.           E  E     Q.     E  Q.     E   
---------------------|----------------------|
---------------------|----------------------|
--4------------L--4--|--4------4--4------4--|
---------------------|----------------------|


  Q.     E  Q.     E     Q.     E  Q    Q     
----------------------|----------------------|
----------------------|----------------------|
------------4------4--|------------4----4----|
--2------2------------|--2------2------------|


  Q    Q    Q    Q       Q    Q    Q    Q             
----------------------|----------------------|-------|
----------------------|----------------------|-------|
--2----2----2----2----|--2----2----2----2----|-------|
----------------------|----------------------|-------|


-------|-------|-------|-------|-------|-------|-------|
-------|-------|-------|-------|-------|-------|-------|
-------|-------|-------|-------|-------|-------|-------|
-------|-------|-------|-------|-------|-------|-------|


-------|-------|-------|-------|-------|
-------|-------|-------|-------|-------|
-------|-------|-------|-------|-------|
-------|-------|-------|-------|-------|


  E  E  E  E  E  E  E   E     Q.     E   Q    Q     
---------------------------|-----------------------|
---------------------------|-----------------------|
---------------------------|---------1s--4----4----|
--------2-----2--L--L\--L--|--2--------------------|


  Q.     E   Q    Q       Q.     E   Q    Q     
-----------------------|-----------------------|
-----------------------|------------------6----|
---------1s--4----4----|--4------1s--4---------|
--2--------------------|-----------------------|


  Q.     E   Q    Q       W                 
-----------------------|-------------------|
------------------6----|-------------------|
--4------1s--4---------|--6----------------|
-----------------------|-------------------|


  Q    Q    Q    Q       W                 
----------------------|-------------------|
-------1----3----4----|--3----------------|
--4-------------------|-------------------|
----------------------|-------------------|


   Q     Q    Q    Q       E  E  E  E  E  E  E  E   
------------------------|--------------------------|
--(1)-------------------|--------------------------|
---------1----4----1----|--4--4--4--4--4--4--4--4--|
------------------------|--------------------------|


  E  E  E  E  E  E  E  E     E  E  E  E  E  E  E  E   
--------------------------|--------------------------|
--------------------------|--------------------------|
--4--4--4--4--4--4--4--4--|--4--4--4--4--4--4--4--4--|
--------------------------|--------------------------|


  Q    Q    Q    E  E     H.           E  E   
-----------------------|---------------------|
-----------------------|---------------------|
--4---------4----------|---------------------|
--------------------2--|--2------------L--2--|


  Q.     E  Q    Q       H.           E  E   
----------------------|---------------------|
----------------------|--1------------L--1--|
----------------------|---------------------|
--2------2--2----2----|---------------------|


  Q.     E  Q    Q       H.           E  E   
----------------------|---------------------|
--1------1--1----1----|---------------------|
----------------------|--4------------L--4--|
----------------------|---------------------|


  Q.     E  Q.     E     Q.     E  Q.     E   
----------------------|----------------------|
----------------------|----------------------|
--4------4--4------4--|------------4------4--|
----------------------|--2------2------------|


  Q.     E  Q    Q       H.           E  E   
----------------------|---------------------|
----------------------|---------------------|
------------4----4----|---------------------|
--2------2------------|--2------------L--2--|


  Q.     E  Q    Q       H.           E  E   
----------------------|---------------------|
----------------------|--1------------L--1--|
----------------------|---------------------|
--2------2--2----2----|---------------------|


  Q.     E  Q    S  E.     H.           E  E   
------------------------|---------------------|
--1------1--1----1s-4---|---------------------|
------------------------|--4------------L--4--|
------------------------|---------------------|


  Q.     E  Q.     E     Q.     E  Q.     E   
----------------------|----------------------|
----------------------|----------------------|
--4------4--4------4--|------------4------4--|
----------------------|--2------2------------|


  Q.     E  Q    Q       Q    Q    Q    Q     
----------------------|----------------------|
----------------------|----------------------|
------------4----4----|--2----2----2----2----|
--2------2------------|----------------------|


  Q    Q    Q    Q       E  E  Q.     E  E  E   
----------------------|------------------------|
----------------------|------------------------|
--2----2----2----2----|------------------------|
----------------------|--2--2--2------2--2--2--|


  E  E  Q.     E  E  E     E  E  Q.     E  E  E   
------------------------|------------------------|
------------------------|------------------------|
------------------------|--2--2--2------2--2--2--|
--2--2--2------2--2--2--|------------------------|


  E  E  Q.     E  E  E     E  E  Q.     E  E  E   
------------------------|------------------------|
------------------------|------------------------|
--2--2--2------2--2--2--|--6--6--6------6--6--6--|
------------------------|------------------------|


  E  E  Q.     E  E  E     E  E  Q.     E  E  E   
------------------------|------------------------|
------------------------|------------------------|
--6--6--6------6--6--6--|--4--4--4------4--4--4--|
------------------------|------------------------|


  E  E  Q.     E  E  E     E  E  Q.     E  E  E   
------------------------|------------------------|
------------------------|------------------------|
--4--4--4------4--4--4--|------------------------|
------------------------|--2--2--2------2--2--2--|


  E  E  Q.     E  E  E     E  E  Q.     E  E  E   
------------------------|------------------------|
------------------------|------------------------|
------------------------|------------------------|
--2--2--2------2--2--2--|--2--2--2------2--2--2--|


  E  E  Q.     E  E  E     E  E  Q.     E  E  E   
------------------------|------------------------|
------------------------|------------------------|
------------------------|------------------------|
--2--2--2------2--2--2--|--2--2--2------2--2--2--|


  E  E  Q.     E  E  E     E  E  Q.     E  E  E   
------------------------|------------------------|
------------------------|------------------------|
--2--2--2------2--2--2--|------------------------|
------------------------|--2--2--2------2--2--2--|


  E  E  Q.     E  E  E     E  E  Q.     E  E  E   
------------------------|------------------------|
------------------------|------------------------|
--4--4--4------4--4--4--|------------------------|
------------------------|--2--2--2------2--2--2--|


  E  E  Q.     E  E  E     E  E  Q.     E  E  E   
------------------------|------------------------|
------------------------|------------------------|
--2--2--2------2--2--2--|------------------------|
------------------------|--2--2--2------2--2--2--|


  E  E  Q.     E  E  E     E  E  Q.     E  E  E   
------------------------|------------------------|
------------------------|------------------------|
--4--4--4------4--4--4--|--6--6--6------6--6--6--|
------------------------|------------------------|


  E  E  Q.     E  E  E     E  E  Q.     E  E  E   
------------------------|------------------------|
------------------------|------------------------|
--2--2--2------2--2--2--|------------------------|
------------------------|--2--2--2------2--2--2--|


  E  E  Q.     E  E  E     E  E  Q.     E  E  E   
------------------------|------------------------|
------------------------|------------------------|
--4--4--4------4--4--4--|--6--6--6------6--6--6--|
------------------------|------------------------|


  E  E  Q.     E  E  E     E  E  Q.     E  E  E   
------------------------|------------------------|
------------------------|------------------------|
--2--2--2------2--2--2--|------------------------|
------------------------|--2--2--2------2--2--2--|


  E  E  Q.     E  E  E     E  E  E  E  E  E  E  E   
------------------------|--------------------------|
------------------------|--------------------------|
------------------------|--4--4--4--4--4--4--4--4--|
--4--4--4------4--4--4--|--------------------------|


  E  E  E  E  E  E  E  E     E  E  E  E  E  E  E  E   
--------------------------|--------------------------|
--------------------------|--------------------------|
--4--4--4--4--4--4--4--4--|--4--4--4--4--4--4--4--4--|
--------------------------|--------------------------|


  Q    Q    Q    E  E     H.           E  E   
-----------------------|---------------------|
-----------------------|---------------------|
--4---------4----------|---------------------|
--------------------2--|--2------------L--2--|


  Q.     E  Q    Q       H.           E  E   
----------------------|---------------------|
----------------------|--1------------L--1--|
----------------------|---------------------|
--2------2--2----2----|---------------------|


  Q.     E  Q    S  E.     H.           E  E   
------------------------|---------------------|
--1------1--1----1s-4---|---------------------|
------------------------|--4------------L--4--|
------------------------|---------------------|


  Q.     E  Q.     E     Q.     E  Q.     E   
----------------------|----------------------|
----------------------|----------------------|
--4------4--4------4--|------------4------4--|
----------------------|--2------2------------|


  Q.     E  Q    Q       H.           E  E   
----------------------|---------------------|
----------------------|---------------------|
------------4----4----|---------------------|
--2------2------------|--2------------L--2--|


  Q.     E  Q    Q       H.           E  E   
----------------------|---------------------|
----------------------|--1------------L--1--|
----------------------|---------------------|
--2------2--2----2----|---------------------|


  Q.     E  Q    S  E.     H.           E  E   
------------------------|---------------------|
--1------1--1----1s-4---|---------------------|
------------------------|--4------------L--4--|
------------------------|---------------------|


  Q.     E  Q.     E     Q.     E  Q.     E   
----------------------|----------------------|
----------------------|----------------------|
--4------4--4------4--|------------4------4--|
----------------------|--2------2------------|


  Q.     E  Q    Q       Q.     Q    Q    E          
----------------------|----------------------|-----||
----------------------|----------------------|-----||
------------4----4----|----------------------|-----||
--2------2------------|--2-------------------|-----||




Duration Legend
---------------
W - whole
H - half
Q - quarter
E - 8th
S - 16th
T - 32nd
X - 64th
. - note dotted
|-n-|  - n-tuplets


Tablature Legend
----------------
L - tied note
x - dead note
g - grace note
(n) - ghost note
> - accentuded note
NH - natural harmonic
AH - artificial harmonic
TH - tapped harmonic
SH - semi harmonic
PH - pitch harmonic
h - hammer on
p - pull off
b - bend
br - bendRelease
pb - preBend
pbr - preBendRelease
brb - bendReleaseBend
\n/ - tremolo bar dip
\n - tremolo bar dive
-/n - tremolo bar Release up
/n\ - tremolo bar inverted dip
/n - tremolo bar return
-\n - tremolo bar Release down
S - shift slide
s - legato slide
/ -  slide into from below or out of upwards
\ -  slide into from above or out of downwards
~ - vibrato
W - wide vibrato
tr - trill
TP - tremolo picking
T - tapping
S - slap
P - pop
< - fade in
^ - brush up
v - brush down

            
            
Suggest correction
Creating personal tab
Creating personal tab
You can edit any tab online and save it as your Personal.

You can edit, replace or remove any tab part or add personal notes – all changes will be seen only by you.

Personal tabs can be accessed anytime from any device, even offline.
Learn more »
Give kudos to tab author, rate the tab!
1 2 3 4 5
comments
print report bad tab
guest
You may want to rate the tab now too:
select rating
Wanna post a correction for this tab? Suggest correction