Oops, an error
Loading. Please wait.

Shissou Bass Tab

version 1
version 1

Whole song

Interactive

4,742 views 3 this week
no commentswrite comment
1 2 3 4 5
2 more votes to show rating
add to favorites
launch autoscroll
font size
0
reset
guitar tuner
Autoscroll
slow
fast
+/-
esc
set tempo
stop
Help us to improve Ultimate-Guitar.com Take our survey!
×
Difficulty
intermediate
Just because I like playing this bass line, and I could not find any tabs for this in 
sight, i decided to post this tab here, Enjoy!

Intro:
G|---------|---------|---------------------------|---------------------------|
D|-0-0-0---|---------|---------------------------|---------------------------|
A|---------|-4-4-4---|---------------------------|-2--2-2--2-2--2--2-2--2-2--| x 2
E|---------|---------|-2--2-2--2-2--2--2-2--2-2--|---------------------------|


Verse:
|--------------------------|-----------------------|--------------------1--4-|
|--------------------------|-0--0-0--0-0--0---0--1-|-2--2-2--2-2--2--4-------|
|-0--0-0--0-0--0--0-0--0-0-|----------------4------|-------------------------|
|--------------------------|-----------------------|-------------------------|

|-2--2-2--2-2--1--1-1--1-1-|--------------------------|-------------2--1-----|
|--------------------------|-4--4-4--4-4--4--4-4--4-4-|--------------------2-|
|--------------------------|--------------------------|-4--4-4--4-4----------|
|--------------------------|--------------------------|----------------------|

|--------------------------|-------------4--1-----|-2--2-2--2-2--2--2-2--2-2-|
|-0--0-0--0--0-0--0-0--0-0-|-2--2-2--2-2--------2-|--------------------------|
|--------------------------|----------------------|--------------------------|
|--------------------------|----------------------|--------------------------|

|-----------------------|--------------------1--4-|-2--2-2--2-2--1--1-1--1-1-|
|-0--0-0--0-0--0---0--1-|-2--2-2--2-2--2--4-------|--------------------------|
|----------------4------|-------------------------|--------------------------|
|-----------------------|-------------------------|--------------------------|

|--------------------------|--------------2--1------|--------------------------|
|-4--4-4--4-4--4--4-4--4-4-|---------------------2--|-0--0-0--0--0-0--0-0--0-0-|
|--------------------------|-4--4-4--4-4------------|--------------------------|
|--------------------------|------------------------|--------------------------|

|--------------4--1-----|
|-2--2-2--2-2---------2-|
|-----------------------|
|-----------------------|


Pre-Corus:
|----------------------------|----------------------------|----------------------------|
|----------------------------|----------------------------|----------------------------|
|----------------------------|--0--0-0--0-0--0--0-0--0-0--|--4--4-4--4-4--4--4-4--4-4--|
|--0--0-0--0-0--0--0-0--0-0--|----------------------------|----------------------------|

|----------------------------|----------------------------|----------------------------|
|--4--4-4--4-4--2--2-2--2-2--|--0--0-0--0--0-0--0-0--0-0--|--0--0-0--0--0-0--0-0--0-0--|
|----------------------------|----------------------------|----------------------------|
|----------------------------|----------------------------|----------------------------|

|--------------------------|
|--2--2--2--2--2--2--2--2--|
|--------------------------|
|--------------------------|

Corus:
|----------------------------|----------------------------|----------------------------|
|--0--0-0--0-0--0--0-0--0-0--|----------------------------|----------------------------|
|----------------------------|--4--4-4--4-4--4--4-4--4-4--|----------------------------|
|----------------------------|----------------------------|--2--2-2--2-2--2--2-2--2-2--|

|----------------------------|----------------------------|--2--2-2--2--2-2--2-2--2-2\--|
|----------------------------|--0--0-0--0--0-2--2-2--2-2--|-----------------------------|
|--2--2-2--2-2--2--2-2--2-2--|----------------------------|-----------------------------|
|----------------------------|----------------------------|-----------------------------|

|----------------------------|--2--2-2--2--2-2--2-2--2-2\--|-------------------------|
|--0--0-0--0--0-2--2-2--2-2--|-----------------------------|--0--0--0----------------|
|----------------------------|-----------------------------|-----------4----4--4-----|
|----------------------------|-----------------------------|----------------------2--|

|--------------------------|----------------------2--|
|--------------------------|--0--0--0--2----2--2-----|
|--------------------------|-------------------------|
|-----2--2--0--0--0--0--0--|-------------------------|


Play intro again


Bridge:
|----------|----------|----------|----------|----------|
|----------|--0----0--|--2----2--|----------|----------|
|--0----0--|----------|----------|--0-------|----------|
|----------|----------|----------|-------4--|--2----2--|

|----------|----------|----------|
|----------|--0----0--|--2-------|
|--4----4--|----------|----------|
|----------|----------|----------|


Play Pre-Corus and Corus again


Interlude/Solo thing:
|--------|-----------2-|------2----1--|------1----2--|-4----2-----------|
|--------|-0----4------|--------------|-4------------|-----------2------|
|------0/|-------------|-4------------|--------------|----------------4-|
|--------|-------------|--------------|--------------|------------------|

|-------------2--|------2----1--|-------1----2--|--4----2/6----|
|-0------4-------|--------------|--4------------|--------------|
|----------------|-4------------|---------------|--------------|
|----------------|--------------|---------------|--------------|


Vocal/Instrumental Pickup/Cresendo type of thing:
|-----------------|-----------------|-----------------|------------------|
|-0-0-0-0-0-0-0-0-|-2-2-2-2-2-2-2-2-|-----------------|------------------|
|-----------------|-----------------|-4-4-4-4-4-4-4-4-|------------------| x 2
|-----------------|-----------------|-----------------|-2-2--2-2-2-2-2-2-|

|---------------------------|---------------------------|------------------------|
|-0-0--0-0--0-0--0-0--0-0-0-|-0-0--0-0--0-0--0-0--0-0-0-|-2--2--2--2--2--2--2--2-|
|---------------------------|---------------------------|------------------------|
|---------------------------|---------------------------|------------------------|


Play Corus once more


Then play Intro once more


End Note: (let it ring)
|-----------|
|--0--------|
|-----------|
|-----------|


I can not take credit for all of it: as some of the tab was provided by another author, 
remains nameless as he/she did not specify a name on his/her work.
Suggest correction
Give kudos to tab author, rate the tab!
1 2 3 4 5
comments
print report bad tab
guest
You may want to rate the tab now too:
select rating
Wanna post a correction for this tab? Suggest correction