Oops, an error
Loading. Please wait.

Shissou Tab

version 1
version 1

Whole song

Interactive

12,516 views 24 this week
1 commentread comment
1 2 3 4 5
accurate
x 4
add to favorites
launch autoscroll
font size
0
reset
how to read this tab
guitar tuner
Autoscroll
slow
fast
+/-
esc
set tempo
stop
Help us to improve Ultimate-Guitar.com Take our survey!
×
Author
Difficulty
intermediate
my first tab, there might be a wrong chord but it sounds alright
solo is 100%
easy enough to figure out how many times each chord is played if you listen to the song


e|-----------------------------|
B|-14-12----10-9-------9----10-|
G|-14-13--------9-----6---8----|
D|-12-11-------------7---9-9---|
A|------------------9----------|
E|-----------------------------|

e|-----------------------------|
B|-14-12----15-14------9----10-|
G|-14-13---------14---6---8----|
D|-12-11-------------7---9-9---|
A|------------------9----------|
E|-----------------------------|

e|--------------------|
B|--------------------|
G|---7-9-------6-7-9--|
D|-7-----7-6-4--------|
A|-7-5-7-7-7-4-4-5-7--|
E|-5-----5-4-2--------|

e|--------------------|
B|-------------7-6----|
G|-----6-----7-6-6----|
D|-7-2-6-4-2---7-7----|
A|-7-2-4-4-2-5-5-5----|
E|-5-0---2-0----------|

e|-----------------------------|
B|-14-12----10-9-------9----10-|
G|-14-13--------9-----6---8----|
D|-12-11-------------7---9-9---|
A|------------------9----------|
E|-----------------------------|

e|-----------------------------|
B|-----------------------------|
G|-7-9-------7-6-------7-9-9---|
D|-7-9-7--x2-7-6-4-2---------7-|
A|-5-7-7-----5-4-4-2---5-7-7-7-|
E|-----5---------2-0---------5-|

e|-----------------------------|
B|-14-12----10-9-------9----10-|
G|-14-13--------9-----6---8----|
D|-12-11-------------7---9-9---|
A|------------------9----------|
E|-----------------------------|

e|-----------------------------|
B|-14-12----15-14------9----10-|
G|-14-13---------14---6---8----|
D|-12-11-------------7---9-9---|
A|------------------9----------|
E|-----------------------------|

e|--------------------|
B|--------------------|
G|---7-9-------6-7-9--|
D|-7-5-9-7-6-4-6-7-9--| let ring
A|-7-5-7-7-7-4-4-5-7--|
E|-5-----5-4-2--------|

PICK SLIDEEEEEEEEEEEEEEE

e|--------------------|
B|-------------7-6----|
G|-----6-----7-6-6----|
D|-7-2-6-4-2---7-7----|
A|-7-2-4-4-2-5-5-5----|
E|-5-0---2-0----------|

e|-----------------------------|
B|-14-12----10-9-------9----10-|
G|-14-13--------9-----6---8----|
D|-12-11-------------7---9-9---|
A|------------------9----------|
E|-----------------------------|

e|-----------------------------|
B|-----------------------------|
G|-7-9-------7-6-------7-9-9---|
D|-7-9-7--x2-7-6-4-2---------7-|
A|-5-7-7-----5-4-4-2---5-7-7-7-|
E|-----5---------2-0---------5-|

solo
e|--------------------------------------|
B|-----14------------12-----------------|
G|---11---------------------11-------14-|
D|-12-----11-11h12-14-----11-----13-----|
B|----------------------12-----14--14---|
E|--------------------------------------|

e|-------------------------------------------------------------|
B|-----14------------12---------------------------------14-----|
G|---11----------------14---13h14---13h14---13h14-14-12---14---|
D|-12-----11-11h12-14----14------14------14-----------------11-|
B|-------------------------------------------------------------|
E|-------------------------------------------------------------|

e|--------------------------------------------------|
B|-----14-15-14---------12--------------------------|
G|---11-------------------14---13----13----14-13----|
D|-12-----------11h12-14----14---14----14--------14-|
B|---------------------------------14----14---------|
E|--------------------------------------------------|

e|------------------------------------|
B|-----14-15-14--14---------12--------|
G|---11--------11-------------14------|
D|-12---------------11h12-14----14-11-|
B|------------------------------------|
E|------------------------------------|

e|-------------------------------|
B|-------------------12----------|
G|-14-13-14-13---------14--------|
D|-------------14-11-----14-11---|
B|-------------------------------|
E|-------------------------------|

e|--------------------------------------------|
B|--------------------------------------------|
G|-7-9-6--14-16-14-13---18---6----7-10-9------|
D|-----------------------------4--------------|
B|-5-7-4--12-14-12-11---16---4-4--5-8--7------|
E|-----------------------------2--------------|

e|-2--0--1--2-------------------------|
B|-2--2--2--2------------------------|
G|-2--2--2--2------------------------|
D|-0--0--0--0------------------------|
B|-------------------------------|
E|-------------------------------|

e|-----------------------------|
B|-----------------------------|
G|-7-9-------7-6-------7-9-9---|
D|-7-9-7--x2-7-6-4-2---------7-|
A|-5-7-7-----5-4-4-2---5-7-7-7-|
E|-----5---------2-0---------5-|

e|-----------------------------|
B|-14-12----10-9-------9----10-|
G|-14-13--------9-----6---8----|
D|-12-11-------------7---9-9---|
A|------------------9----------|
E|-----------------------------|

e|-----------------------------|
B|-14-12----15-14------9----10-|
G|-14-13---------14---6---8----|
D|-12-11-------------7---9-9---|
A|------------------9----------|
E|-----------------------------|

e|--------------------------------------------|
B|--------------------------------------------|
G|-18-16-18-16-18-19------18-16-18-16-14-13---|
D|--------------------------------------------|x2
B|-16-14-16-14-16-17------16-14-16-14-12-11---|
E|--------------------------------------------|

e|----------------|
B|-------------17-|
G|-18----16-------|
D|-------------14-|
B|-16----14-------|
E|----------------|
Suggest correction
comments
print report bad tab
1 comment total.
0 reply
MollyIrene 54 wrote on August 10 2014, 01:26 pm

e|-------------------------------------------------------------|
B|-----14------------12---------------------------------14-----|
G|---11----------------14---13h14---13h14---13h14-14-11---14---|
D|-12-----11-11h12-14----14------14------14-----------------11-|
B|-------------------------------------------------------------|
E|-------------------------------------------------------------|

guest
You may want to rate the tab now too:
select rating
Please do not post tabs as comments. Select "correction" instead!