Oops, an error
Loading. Please wait.

Andy bass

5,202 views 24 this week
no commentswrite comment
1 2 3 4 5
x 5
add to favorites
×
Save as Personal and add changes to this tab that will be seen only by you. Learn more ›
×
You can save this tab as Personal to edit and correct it or add notes. All changes will be seen only by you. Learn more »
launch autoscroll
font size
0
reset
guitar tuner
edit
Autoscroll
slow
fast
+/-
esc
set tempo
stop
Author
   --------------ANDY_LAST_DINOSAURS--------------
Tabber= mrhenwy32


Intro-
     (these are 11's)               
G|----1111-(xx)-1111---|--G|----------||
D|---------------------|x7D|----------||
A|---------------------|--A|----------||
E|---------------------|--E|----\9----||


Chorus-


G|----------------------------------------|
D|------------2----------------5/7-5-4----|
A|--------4------4---------5--------------|
E|----2-2---2------2--3--3---3------------| \
                                             2X
G|-----------------------------------------|/ 
D|--------7---4-5-4-7-------7-------7------|
A|---------------------5--5---5-5-5---5----|
E|----5-5---5------------------------------|

Verse-

G|------------------------------------| 
D|------------------------------------| 
A|--------4---4------------5---5------| 
E|----2-2---2---2----2-3-3---3---3----| 

G|----------------------------------||
D|-----------------------7---7------||
A|--------7---7------5-5---5---5----||
E|----5-5---5---5-------------------||

G|------------------------------------| 
D|------------------------------------| 
A|--------4---4------------5---5------| 
E|----2-2---2---2----2-3-3---3---3----| 

G|-------------------------------||
D|-------------------------------||
A|--------7---7---5/7--5-5--5----||
E|----5-5---5---5----------------||


Chorus-


G|----------------------------------------|
D|------------2----------------5/7-5-4----|
A|--------4------4---------5--------------|
E|----2-2---2------2--3--3---3------------|

G|-----------------------------------------||
D|--------7---4-5-4-7-------7-------7------||X2
A|---------------------5--5---5-5-5---5----||
E|----5-5---5------------------------------||


Verse-


G|------------------------------------| 
D|------------------------------------|
A|--------4---4------------5---5------|
E|----2-2---2---2----2-3-3---3---3----| 

G|----------------------------------||
D|-----------------------7---7------||
A|--------7---7------5-5---5---5----||
E|----5-5---5---5-------------------||

G|------------------------------------|
D|------------------------------------|
A|--------4---4------------5---5------|
E|----2-2---2---2----2-3-3---3---3----|

G|-------------------------------||
D|-------------------------------||
A|--------7---7---5/7--5-5--5----||
E|----5-5---5---5----------------||

G|-----------------------------------------|
D|-----------------------------------------|
A|--------4---4-----4---4-----5---5--------|
E|----2-2---2---2-2---2---3-3---3---3-3----|
 
G|------------------------------------------||
D|-----------------------------7---7--------||X2
A|--------7---7-----7---7--5-5---5---5-5----||
E|----5-5---5---5-5---5---------------------||



Chorus-


G|----------------------------------------|
D|------------2----------------5/7-5-4----|
A|--------4------4---------5--------------|
E|----2-2---2------2--3--3---3------------| 

G|-----------------------------------------||
D|--------7---4-5-4-7-------7-------7------||X2
A|---------------------5--5---5-5-5---5----||
E|----5-5---5------------------------------||


Bridge-


G|------------------------------------------------|
D|------------------------------------------------|
A|------------------------------------------------|
E|----2-xx-2-xx-2-xx-2-2-2-2--x3-x3-xx-3-3-3x3----|

G|--------------------------------------------------||
D|--------------------------------------------------||X2
A|-------------------------------5-x5-xx-5-5-5x5----||
E|----xx-5-xx-5-xx-3-xx-3-3-3-3---------------------||
Really hard to tab so might be abit off but you 
will get the idea when you play with the music


Little thing Sam does live (Sometimes)-


G|-----------------------------------------|
D|-----------------------------------------|
A|----9------10------12---10---9------9----|
E|-----------------------------------------| 

G|-------------------------------||
D|--------------------11---12----||
A|----10------12-----------------||
E|-------------------------------||


Interlude-


G|----------------1111xx1111-----------------1111xx1111----|
D|---------------------------------------------------------|
A|----9-9-x-9-x-9------------10-10-x-10-x-10---------------|
E|---------------------------------------------------------|

G|--------------------1111xx1111-------------1111xx1111----||
D|---------------------------------------------------------||
A|----12-12-x-12-x-12------------9-9-x-9-x-9---------------||
E|---------------------------------------------------------||

G|----------------1111xx1111-----------------1111xx1111----| 
D|---------------------------------------------------------| 
A|----9-9-x-9-x-9------------10-10-x-10-x-10---------------| 
E|---------------------------------------------------------| 

G|--------------------1111xx1111-----------||
D|-----------------------------------------||
A|----12-12-x-12-x-12------------9-9-\9----||
E|-----------------------------------------||

Verse- (While Lachie dose the solo)


G|------------------------------------|
D|------------------------------------|
A|--------4---4------------5---5------|
E|----2-2---2---2----2-3-3---3---3----|

G|------------------------------------||
D|-------------------------7---7------||
A|--------7---7------4-5-5---5---5----||
E|----5-5---5---5---------------------||

G|------------------------------------| 
D|------------------------------------| 
A|--------4---4------------5---5------| 
E|----2-2---2---2----2-3-3---3---3----| 

G|------------------------------------||
D|-------------------------7---7------||
A|--------7---7------4-5-5---5---5----||
E|----5-5---5---5---------------------||

G|------------------------------------------------------------|
D|------------------------------------------------------------|
A|-5-5-x-5-x-5--5-5-x-5-x-5--5-5-x-5-x-5--5-5-x-5-x-5---\5----|
E|------------------------------------------------------------|


Chorus-


G|----------------------------------------|
D|------------2----------------5/7-5-4----|
A|--------4-----4----------5--------------|
E|----2-2---2------2--3--3---3------------| 

G|-----------------------------------------|
D|--------7---4-5-4-7-------7-------7------|X2
A|---------------------5--5---5-5-5---5----|
E|----5-5---5------------------------------|


Bridge-


G|---------------------------------------------------| 
D|---------------------------------------------------| 
A|---------------------------------------------------| 
E|----2-xx-2-xx-2-xx-2-2-2-2--x3-x3-xx-3-3-3x3-xx----| 

G|-----------------------------------------------|
D|-----------------------------------------------|
A|----------------------------5-x5-xx-5-5-5x5----|
E|----5-xx-5-xx-3-xx-3-3-3-3---------------------|

G|---------------------------------------------------| 
D|---------------------------------------------------| 
A|---------------------------------------------------| 
E|----2-xx-2-xx-2-xx-2-2-2-2--x3-x3-xx-3-3-3x3-xx----| 

G|--------------------------------------------------------------|
D|--------------------------------------------------------------|
A|----------------------------5-x5-xx-5-5-5x5---5-5-x-5-x-\5----|
E|----5-xx-5-xx-3-xx-3-3-3-3------------------------------------|



If you are struggling feel free to check 
out my cover (although it is slightly different to the tab) 
it should get you on the right track.
http://www.youtube.com/watch?v=5EK5IHqimco&feature=plcp

            
            
Suggest correction
Creating personal tab
Creating personal tab
You can edit any tab online and save it as your Personal.

You can edit, replace or remove any tab part or add personal notes – all changes will be seen only by you.

Personal tabs can be accessed anytime from any device, even offline.
Learn more »
comments
print report bad tab
guest
You may want to rate the tab now too:
select rating
Wanna post a correction for this tab? Suggest correction