Oops, an error
Loading. Please wait.

Apollo tab

2,417 views 30 this week
1 commentread comment
1 2 3 4 5
x 4
add to favorites
×
Save as Personal and add changes to this tab that will be seen only by you. Learn more ›
×
You can save this tab as Personal to edit and correct it or add notes. All changes will be seen only by you. Learn more »
launch autoscroll
font size
0
reset
how to read this tab
guitar tuner
edit
Autoscroll
slow
fast
+/-
esc
set tempo
stop
Author
Difficulty
Chord progression 
      
e|--7---------2---------6--------7---------|
B|--9---------4---------7--------5---------|
G|--8---------3---------6--------4---------|
D|--9---------4---------8--------6---------|
A|--7---------2---------6--------4---------|
E|--x---------x---------x--------x---------|


[Main riff]

e|-----------------11---------------------------------------------14------14------------12--------|
B|--12-11-12-11-12----12-11-12-11-7-9-7~~----------14-12-14-12-14--14-12---14-14-12-12----16~~---|
G|------------------------------------------------------------------------------------------------|
D|------------------------------------------------------------------------------------------------|
A|------------------------------------------------------------------------------------------------|
E|------------------------------------------------------------------------------------------------|

e|-----------------11-----------------------------------------14------16-------------14-14~~---|
B|--12-11-12-11-12----12-11-12-11-7-9-7~~-----14-12-14-12-14----14-12---16-16-14-14-----------|
G|---------------------------------------------------------------------------------------------|
D|---------------------------------------------------------------------------------------------|
A|---------------------------------------------------------------------------------------------|
E|---------------------------------------------------------------------------------------------|


[Verse chord riff]

e|--x6---6------6h7-7-xx-7---------------------------------------------------|
B|--x6h7-7------7---7-xx-7-7-------------------------------------------------|
G|--x6---6------6---6-xx-6---------------------------------------------------|
D|---------------------------------------------------------------------------|
A|---------------------------------------------------------------------------|
E|---------------------------------------------------------------------------|


[Bridge] (repeat 2x)

e|-------------------------------------------------------------------------------|
B|-------------------------------------------------------------------------------|
G|--13---------------------------------13---------------------13---------13------|
D|-----13-11-16x16\--8h9-13x13\--8x8-------13-11-16x16\-8-9------13-11-13--13~---|
A|------------------------------9----9-------------------------------------------|
E|-------------------------------------------------------------------------------|


[Solo]

e|-----------------------------------------------------------------------------------------------------------|
B|---15b16r14-----------------12-14--11--12--14--16----------------------------------------------------------|
G|------------16-15~~----13-13---------13--13--13---15-13-11~~~~-13-13-13--------------11----------11--------|
D|-------------------------------------------------------------------------13-11-11h13---------8-9----9-8----|
A|---------------------------------------------------------------------------------------9-11-------------11~|
E|-----------------------------------------------------------------------------------------------------------|

e|------------------------12-11h12p11------------------------------------------------------------------------|
B|-------------12b14r11---------------12---------------------------------------------------------------------|
G|---------------------------------------9-8h9p8~~-----------------------------------------------------------|
D|--11-11br9-------------------------------------------------------------------------------------------------|
A|-----------------------------------------------------------------------------------------------------------|
E|-----------------------------------------------------------------------------------------------------------|



************************************

| x   Dead note
| h   Hammer-on
| p   Pull-off
| r   Release
| b   Bend
| br  Bend release
| \   Slide down
| ~   Vibrato

************************************

            
            
Suggest correction
Creating personal tab
Creating personal tab
You can edit any tab online and save it as your Personal.

You can edit, replace or remove any tab part or add personal notes – all changes will be seen only by you.

Personal tabs can be accessed anytime from any device, even offline.
Learn more »
comments
print report bad tab
1 comment total.
-1 reply
Israel0720 10 Aug 25, 2016 07:43 PM

Cool pal you reaffirm my version...

guest
You may want to rate the tab now too:
select rating
Wanna post a correction for this tab? Suggest correction