Oops, an error
Loading. Please wait.

Apollo Bass Tab

version 2
version 2

Whole song

  • Arranged for standard tuning and the correct octave.
13 views 1 this week
no commentswrite comment
1 2 3 4 5
3 more votes to show rating
add to favorites
launch autoscroll
font size
0
reset
guitar tuner
Autoscroll
slow
fast
+/-
esc
set tempo
stop
Help us to improve Ultimate-Guitar.com Take our survey!
×
Author
Difficulty
novice
About this tab version
Arranged for standard tuning and the correct octave. Was this info helpful? Yes No
[Intro 0:15]

G|---------------------------|
D|-----------------6----4----|
A|---------------------------|
E|---------------------------|

G|-------------------------------------|-------------------------------|
D|-2---2------2-----2--2-------2---3---|-4---4------4-----4--4----2----|
A|-------------------------------------|-------------------------------|
E|-------------------------------------|-------------------------------|

G|-------------------------------------|-------------------------------|
D|-1---1------1-----1--1-------4---5---|-6---6------6-----6--6----4----|
A|-------------------------------------|-------------------------------|
E|-------------------------------------|-------------------------------|

G|-------------------------------------|-------------------------------|
D|-2---2------2-----2--2-------2---3---|-4---4------4-----4--4----5----|
A|-------------------------------------|-------------------------------|
E|-------------------------------------|-------------------------------|

G|-------------------------------------|-------------------------------|
D|-6---6------6-----6--6---------------|-6---6------6-----6--6----4----|
A|-------------------------------------|-------------------------------|
E|-------------------------------------|-------------------------------|


[Verse 0:31]

G|---------------------------------|---------------------------------|
D|-----2------2--------------------|-----2------2--------------------|
A|---------------------------------|---------------------------------|
E|---------------------------------|---------------------------------|

G|---------------------------------|---------------------------|
D|-----1------1--------------------|-----6------6----6----4----|
A|---------------------------------|---------------------------|
E|---------------------------------|---------------------------|

G|---------------------------------|---------------------------------|
D|---------------------------------|---------------------------------|
A|-----4------4--------------------|-----4------4--------------------|
E|---------------------------------|---------------------------------|

G|---------------------------------|---------------------------|
D|-----1------1--------------------|-----6------6----6----4----|
A|---------------------------------|---------------------------|
E|---------------------------------|---------------------------|


G|---------------------------------|---------------------------|
D|-----2------2--------------------|-----2------2----2----4----|
A|---------------------------------|---------------------------|
E|---------------------------------|---------------------------|

G|---------------------------------|---------------------------|
D|-----1------1--------------------|-----6------6----6----4----|
A|---------------------------------|---------------------------|
E|---------------------------------|---------------------------|

G|---------------------------------|---------------------------|
D|---------------------------------|-----4------4----4----2----|
A|-----4------4--------------------|---------------------------|
E|---------------------------------|---------------------------|

G|----------------------------------|-------------------------------|
D|-----1------1---------------4--5--|-6---6------6--------6----4----|
A|----------------------------------|-------------------------------|
E|----------------------------------|-------------------------------|


[Chorus 1:02]

G|-------------------------------------|-------------------------------|
D|-2---2------2-----2--2-------2---3---|-4---4------4-----4--4----2----|
A|-------------------------------------|-------------------------------|
E|-------------------------------------|-------------------------------|

G|-------------------------------------|-------------------------------|
D|-1---1------1-----1--1-------4---5---|-6---6------6-----6--6----4----|
A|-------------------------------------|-------------------------------|
E|-------------------------------------|-------------------------------|

G|-------------------------------------|-------------------------------|
D|-2---2------2-----2--2-------2---3---|-4---4------4-----4--4----5----|
A|-------------------------------------|-------------------------------|
E|-------------------------------------|-------------------------------|

G|-------------------------------------|-------------------------------|
D|-6---6------6-----6--6---------------|-6---6------6-----6--6----4----|
A|-------------------------------------|-------------------------------|
E|-------------------------------------|-------------------------------|


[Verse 1:17]

G|---------------------------------|---------------------------|
D|-----2------2--------------------|-----2------2----2----4----|
A|---------------------------------|---------------------------|
E|---------------------------------|---------------------------|

G|---------------------------------|---------------------------|
D|-----1------1--------------------|-----6------6----6----4----|
A|---------------------------------|---------------------------|
E|---------------------------------|---------------------------|

G|---------------------------------|---------------------------|
D|---------------------------------|---------------------------|
A|-----4------4--------------------|-----4------4----4----5----|
E|---------------------------------|---------------------------|

G|---------------------------------|---------------------------|
D|-----1------1--------------------|-----6------6----6----4----|
A|---------------------------------|---------------------------|
E|---------------------------------|---------------------------|


G|---------------------------------|---------------------------|
D|-----2------2--------------------|-----2------2----2----4----|
A|---------------------------------|---------------------------|
E|---------------------------------|---------------------------|

G|---------------------------------|---------------------------|
D|-----1------1--------------------|-----6------6----6----4----|
A|---------------------------------|---------------------------|
E|---------------------------------|---------------------------|

G|---------------------------------|---------------------------|
D|---------------------------------|-----4------4----4----2----|
A|-----4------4--------------------|---------------------------|
E|---------------------------------|---------------------------|

G|----------------------------------|-------------------------------|
D|-----1------1---------------4--5--|-6---6------6--------6----4----|
A|----------------------------------|-------------------------------|
E|----------------------------------|-------------------------------|


[Chorus 1:47]

G|-------------------------------------|-------------------------------| -|
D|-2---2------2-----2--2-------2---3---|-4---4------4-----4--4----2----|  |
A|-------------------------------------|-------------------------------|  |
E|-------------------------------------|-------------------------------|  |
                                                                          |
G|-------------------------------------|-------------------------------|  |
D|-1---1------1-----1--1-------4---5---|-6---6------6-----6--6----4----|  |
A|-------------------------------------|-------------------------------|  |
E|-------------------------------------|-------------------------------| -| x3


G|-------------------------------------|-------------------------------|
D|-2---2------2-----2--2-------2---3---|-4---4------4-----4--4----5----|
A|-------------------------------------|-------------------------------|
E|-------------------------------------|-------------------------------|

G|-------------------------------------|-------------------------------|
D|-6---6------6-----6--6---------------|-6---6------6-----6--6----4----|
A|-------------------------------------|-------------------------------|
E|-------------------------------------|-------------------------------|


[Chorus 2:47]

G|--------|-------------------------------|
D|--------|---------------------4----2----|
A|--------|------------------4------------|
E|--------|-------------------------------|

G|-------------------------------------|-------------------------------|
D|-1---1------1-----1--1-------4---5---|-6---6------6-----6--6----4----|
A|-------------------------------------|-------------------------------|
E|-------------------------------------|-------------------------------|

G|-------------------------------------|-------------------------------| -|
D|-2---2------2-----2--2-------2---3---|-4---4------4-----4--4----2----|  |
A|-------------------------------------|-------------------------------|  |
E|-------------------------------------|-------------------------------|  |
                                                                          |
G|-------------------------------------|-------------------------------|  |
D|-1---1------1-----1--1-------4---5---|-6---6------6-----6--6----4----|  |
A|-------------------------------------|-------------------------------|  |
E|-------------------------------------|-------------------------------| -| x2


G|-------------------------------------|-------------------------------|
D|-2---2------2-----2--2-------2---3---|-4---4------4-----4--4----5----|
A|-------------------------------------|-------------------------------|
E|-------------------------------------|-------------------------------|

G|-------------------------------------|-------------------------------|
D|-6---6------6-----6--6---------------|-6---6------6-----6--6----4----|
A|-------------------------------------|-------------------------------|
E|-------------------------------------|-------------------------------|

G|--------|
D|-2------|
A|--------|
E|--------|

Suggest correction
Give kudos to tab author, rate the tab!
1 2 3 4 5
comments
print report bad tab
guest
You may want to rate the tab now too:
select rating
Wanna post a correction for this tab? Suggest correction