Oops, an error
Loading. Please wait.

Hawaii Bass Tab

31 views 1 this week
1 commentread comment
1 2 3 4 5
2 more votes to show rating
add to favorites
launch autoscroll
font size
0
reset
guitar tuner
Autoscroll
slow
fast
+/-
esc
set tempo
stop
Help us to improve Ultimate-Guitar.com Take our survey!
×
Author
Hawaii, by the Australian indie rock band, Last Dinosaurs, is a B-side unreleased song on the album,
In A Million Years along with five other songs. Song available online.

[Intro] -first 10 sec of the song is guitar

G|---------------------------------------------------------------------------|
D|---------------------------------------------------------------------------|
A|-2--3-3--2-3\5-5---2--3-3--2-3\5-5-----------------------------------------|
E|--------------------------------------5--5-5--5--5-5-3---5--5-5--5--5-5-3--|

G|---------------------------------------------------------------------------|
D|---------------------------------------------------------------------------|
A|---------------------------------------2--3-3--2-3\5-5---2--3-3--2-3\5-5---|
E|-1--1-1--1--1-1-1--1--1-1--1--1-xxxx---------------------------------------|

You love me, I know                 -                  Have you? I never asked
G|---------------------------------------------------------------------------|
D|---------------------------------------------------------------------------|
A|-2--3-3--2-3\5-5----2--3-3--2-3\5-5----------------------------------------|
E|--------------------------------------5--5-5--5--5-5-3---5--5-5--5--5-5-3--|

My heart is yours             -             Over time you'll no longer be mine
G|---------------------------------------------------------------------------|
D|---------------------------------------------------------------------------|
A|---------------------------------------2--3-3--2-3\5-5---2--3-3--2-3\5-5---|
E|-1--1-1--1--1-1-1--1--1-1--1--1-xxxx---------------------------------------|


[Chorus] x2
Oh girl                           I love to work this out
G|---------------------------------------------------------------------------|
D|---------------------------------------------------------------------------|
A|-3-3-3-3-3-3-3-3-----------------------------------------------------------| x2
E|-----------------1-1-1-1-1-1-1-1-5-5-3h5-5-3h5-5-3h5-5-5-3-3-3-1-1-1-1-1-1-|

But its starts getting late (let me go)
G|---------------------------------------------------------------------------|
D|---------------------------------------------------------------------------|
A|-----7-7-7-7-5-5-5-5-5-5-5-5-5-5-5-5-5-5-5-5-------------------------------|
E|-1-1-----------------------------------------------------------------------|

Same as intro -repeat from intro until chorus:
G|---------------------------------------------------------------------------|
D|---------------------------------------------------------------------------|
A|-2--3-3--2-3\5-5---2--3-3--2-3\5-5-----------------------------------------|
E|--------------------------------------5--5-5--5--5-5-3---5--5-5--5--5-5-3--|

G|---------------------------------------------------------------------------|
D|---------------------------------------------------------------------------|
A|---------------------------------------2--3-3--2-3\5-5---2--3-3--2-3\5-5---|
E|-1--1-1--1--1-1-1--1--1-1--1--1-xxxx---------------------------------------|

Meet me on the train             -            But let's just drop pretend that
G|---------------------------------------------------------------------------|
D|---------------------------------------------------------------------------|
A|-2--3-3--2-3\5-5----2--3-3--2-3\5-5----------------------------------------|
E|--------------------------------------5--5-5--5--5-5-3---5--5-5--5--5-5-3--|

My heart is floored           -            Over time you'll no longer be mine~
G|---------------------------------------------------------------------------|
D|---------------------------------------------------------------------------|
A|---------------------------------------2--3-3--2-3\5-5---2--3-3--2-3\5-5---|
E|-1--1-1--1--1-1-1--1--1-1--1--1-xxxx---------------------------------------|


[Slow Chorus]
Oh girl         -            But it starts getting late (Let me go)
G|---------------------------------------------------------------------------|
D|---------------------------------------------------------------------------|
A|-3-------------------------------------------------7-7-7-7-5-5-5-5-5-5-5-5-|
E|----1-----5-------------3---1-1-1-1-1-1-1-1-1-1-1-1------------------------|


[Chorus]
Oh girl                           I love to work this out
G|---------------------------------------------------------------------------|
D|---------------------------------------------------------------------------|
A|-3-3-3-3-3-3-3-3-----------------------------------------------------------|
E|-----------------1-1-1-1-1-1-1-1-5-5-3h5-5-3h5-5-3h5-5-5-3-3-3-1-1-1-1-1-1-|

But its starts getting late (let me go)
G|---------------------------------------------------------------------------|
D|---------------------------------------------------------------------------|
A|-----7-7-7-7-5-5-5-5-5-5-5-5-5-5-5-5-5-5-5-5-------------------------------|
E|-1-1-----------------------------------------------------------------------|

[Outro]
I know where          -             But the stars are oh so distant
G|---------------------------------------------------------------------------|
D|---------------------------------------------------------------------------|
A|-3-3-3-3-3-3-3-3-----------------------------------3-5---------------------|
E|-----------------1-1-1-1-1-1-1-1---5-5-3h5-5-5-5 7-----1-1-1-1-1-1-1-1-1-1-|

Let me go
G|--------------------------------------|
D|--------------------------------------|
A|-----7-7-7-7-5-5-5-5-5-5-5-5-5-5-5-5--|
E|-1-1----------------------------------|

I know where          -              But the stars are oh so distant
G|---------------------------------------------------------------------------|
D|---------------------------------------------------------------------------|
A|-3-3-3-3-3-3-3-3-----------------------------------3-5---------------------|
E|-----------------1-1-1-1-1-1-1-1---5-5-3h5-5-5-5 7-----1-1-1-1-1-1-1-1-1-1-|

Let me go
G|---------------------------------------|
D|---------------------------------------|
A|-----7-7-7-7-5-5-5-5-5-5-5-5-5-5-5-5-3-|
E|-1-1-----------------------------------|

Songs ends with guitar main riff

************************************

| x   Ghost Note
| h   Hammer-on
| t   Tapping
| b   Bend
| /   Slide up
| \   Slide down
| ~   Vibrato
| s   Slap
| P   Pop


************************************
Suggest correction
Give kudos to tab author, rate the tab!
1 2 3 4 5
comments
print report bad tab
1 comment total.
0 reply
noelsacha 10 Nov 04, 2016 11:52 AM

Good job :)

guest
You may want to rate the tab now too:
select rating
Wanna post a correction for this tab? Suggest correction