Oops, an error
Loading. Please wait.

Honolulu tab

version 2
version 2

Whole song

27,375 views 54 this week
9 commentsread comments
1 2 3 4 5
x 24
add to favorites
×
Save as Personal and add changes to this tab that will be seen only by you. Learn more ›
×
You can save this tab as Personal to edit and correct it or add notes. All changes will be seen only by you. Learn more »
launch autoscroll
font size
0
reset
how to read this tab
guitar tuner
edit
Autoscroll
slow
fast
+/-
esc
set tempo
stop
Author
Difficulty
Honolulu.


[Intro]

(main riff): (guitar 1 only)
e|----------------------------------------------------------------------|
B|----------------------------------------------------------------------|
G|-----6----8--6------8-----11-9--8-------6---4-4----6---4--4-----------|
D|------6------6-------8------------11-----4----4-----4---4-------------| 
A|---7---7-----7-7/9----9---------------6---6---6--6---6---6------------|
E|----------------------------------------------------------------------|(x2)

Guitar 1 
e|-----------------------------------------------------------------------|
B|-----------------------------------------------------------------------|
G|-----6----8--6------8-----11-9--8-------6---4-4----6---4--4------------|
D|------6------6-------8------------11-----4----4-----4---4--------------|
A|---7---7-----7-7/9----9---------------6---6---6--6---6---6-------------|
E|-----------------------------------------------------------------------|(x2)

Played along with guitar 2:
e|---9----11-9/11--11-----14-12--11-----9--7-7----9----7-----------------|
B|-----9-----9/11----11------------14----7---7------7---7--7-------------|
G|--9----9---9/11------11--------------8-----8---8---8---8---------------|
D|-----------------------------------------------------------------------|
A|-----------------------------------------------------------------------|
E|-----------------------------------------------------------------------|(x2)


[Verse]

Guitar 1:
e|-----------------------------------------------------------------------|
B|-----------------------------------------------------------------------|
G|--8---8--6----6p4------------------------------------------------------|
D|--6---8--4----4-4------------------------------------------------------|
A|--7---9--6----6-6------------------------------------------------------|
E|-----------------------------------------------------------------------|(x4)

Guitar 2: (comes in on the future)

e|-7---7---2-------------------------------------------------------------|
B|-9---5---4-------------------------------------------------------------|
G|-8---4---3-------------------------------------------------------------|
D|-9---6---4-------------------------------------------------------------|
A|-7---4---2-------------------------------------------------------------|
E|-----4---2-------------------------------------------------------------|(x2)


[Pre-Chorus]
(main riff)

Guitar 1 
e|----------------------------------------------------------------------|
B|----------------------------------------------------------------------|
G|-----6----8--6------8-----11-9--8-------6---4-4----6---4--4-----------|
D|------6------6-------8------------11-----4----4-----4---4-------------|
A|---7---7-----7-7/9----9---------------6---6---6--6---6---6------------|
E|----------------------------------------------------------------------|(x2)

Guitar 2:
e|---9----11-9/11--11-----14-12--11-----9--7-7----9----7-----------------|
B|-----9-----9/11----11------------14----7---7------7---7--7-------------|
G|--9----9---9/11------11--------------8-----8---8---8---8---------------|
D|-----------------------------------------------------------------------|
A|-----------------------------------------------------------------------|
E|-----------------------------------------------------------------------|(x2)


[Chorus]
(oooooohhhhhhhhhh)

Guitar 1:
e|-777777777--999999999---------------------------------------------------|
B|-555555555--777777777--444444444-444444444------------------------------|
G|-444444444--666666666—-444444444-444444444------------------------------|
D|-666666666--888888888--444444444-444444444------------------------------| 
A|-444444444--666666666--666666666-666666666------------------------------|
E|------------------------------------------------------------------------|

Guitar 2:
e|------------------------------------------------------------------------|
B|------------------------------------------------------------------------|
G|--18/20--16/18--------------------18/20--16/18--------------------------|
D|------------------18181818—--x2-------------------16161616----x2--------| 
A|--16/18--14/16--------------------16/18--14/16--------------------------|
E|------------------16161616------------------------14141414--------------|(x4)


[Solo]

Guitar 1:
e|----------------------------------7---7---2----------------------------|
B|----------------------------------9---5---4----------------------------|
G|--8---8--6----6p4-------8-8-6-----8---4---3----------------------------|
D|--6---8--4----4-4-------6-6-6-----9---6---4----------------------------| 
A|--7---9--6----6-6-------x-x-7-----7---4---2----------------------------|
E|------------------------7-7-----------4---2----------------------------|

(through chorus)

e|-----------------------------------------------------------------------|
B|-----------------------------------------------------------------------|
G|--8---8--6----6p4------------------------------------------------------|
D|--6---8--4----4-4------------------------------------------------------| 
A|--7---9--6----6-6------------------------------------------------------|
E|-----------------------------------------------------------------------|

 Guitar 2:
e|------------------------------------------------------------------------|
B|------------------------------------------------------------------------|
G|------------------------------------------------------------------------|
D|------------[solo]------------------------------------------------------|
A|------------------------------------------------------------------------|
E|------------------------------------------------------------------------|


[Verse]

Guitar 1:
e|-----------------------------------------------------------------------|
B|-----------------------------------------------------------------------|
G|--8---8--6----6p4------------------------------------------------------|
D|--6---8--4----4-4------------------------------------------------------| 
A|--7---9--6----6-6------------------------------------------------------|
E|-----------------------------------------------------------------------|(x4)

Guitar 2:
e|-----------------------------------------------------------------------|
B|-----------------------------------------------------------------------|
G|--4p3—4p3---4p3--------------------------------------------------------|
D|-----------------------------------------------------------------------|
A|-----------------------------------------------------------------------|
E|-----------------------------------------------------------------------|(x4)

Guitar 1: (these people).
e|-----------------------------------------------------------------------|
B|-----------------------------------------------------------------------|
G|--8---8--6----6p4------------------------------------------------------|
D|--6---8--4----4-4------------------------------------------------------| 
A|--7---9--6----6-6------------------------------------------------------|
E|-----------------------------------------------------------------------|

Guitar 2: (these people)

e|-7---7---2-------------------------------------------------------------|
B|-9---5---4-------------------------------------------------------------|
G|-8---4---3-------------------------------------------------------------|
D|-9---6---4-------------------------------------------------------------|
A|-7---4---2-------------------------------------------------------------|
E|-----4---2-------------------------------------------------------------|(x2)


[Chorus]
(oooooohhhhhhhhhh)

Guitar 1:
e|-777777777--999999999---------------------------------------------------|
B|-555555555--777777777--444444444-444444444------------------------------|
G|-444444444--666666666—-444444444-444444444------------------------------|
D|-666666666--888888888--444444444-444444444------------------------------| 
A|-444444444--666666666--666666666-666666666------------------------------|
E|------------------------------------------------------------------------|

Guitar 2:
e|------------------------------------------------------------------------|
B|------------------------------------------------------------------------|
G|--18/20--16/18--------------------18/20--16/18--------------------------|
D|------------------18181818—--x2-------------------16161616----x2--------|
A|--16/18--14/16--------------------16/18--14/16--------------------------|
E|------------------16161616------------------------14141414--------------|(x4)


[Outro]

Guitar 1: (the story only just, just began)
e|-777777777--999999999---------------------------------------------------|
B|-555555555--777777777--666666666-444444444------------------------------|
G|-444444444--666666666—-444444444-444444444------------------------------|
D|-666666666--888888888--444444444-444444444------------------------------| 
A|-444444444--666666666--666666666-666666666------------------------------|
E|------------------------------------------------------------------------|

Guitar 2:
e|------------------------------------------------------------------------|
B|------------------------------------------------------------------------|
G|------------------------------------------------------------------------|
D|-16161616/1818181818-----1111111111/1313131313/14\13/14\13131313--------|
A|---------------------x2-------------------------------------------------|
E|-14141414/1616161616-----9-9-9-9-9-/1111111111/12\11/12\11111111--------|



************************************

| /  Slide up
| p  Pull-off
| x  Dead note
| \  Slide down

************************************

            
            
Suggest correction
Creating personal tab
Creating personal tab
You can edit any tab online and save it as your Personal.

You can edit, replace or remove any tab part or add personal notes – all changes will be seen only by you.

Personal tabs can be accessed anytime from any device, even offline.
Learn more »
comments
print report bad tab
9 comments total. Showing first comments.
0 reply
princetilak 10 Aug 27, 2012 12:04 AM

cheers man, ur a legend!! :)

+1 reply
LucidStrat 60 Feb 09, 2013 11:05 AM

I really want Alps or Repair to be tabbed, I'd really appreciate it if you would!

+1 reply
zacpotter_ 51 Mar 07, 2013 03:56 AM

ill give them a go man! how hard is it to get good tabs from unheard of bands :(

guest
You may want to rate the tab now too:
select rating
Wanna post a correction for this tab? Suggest correction