Oops, an error
Loading. Please wait.

Purist tab

1,433 views 15 this week
1 commentread comment
1 2 3 4 5
x 4
add to favorites
×
Save as Personal and add changes to this tab that will be seen only by you. Learn more ›
×
You can save this tab as Personal to edit and correct it or add notes. All changes will be seen only by you. Learn more »
launch autoscroll
font size
0
reset
how to read this tab
guitar tuner
edit
Autoscroll
slow
fast
+/-
esc
set tempo
stop
Author
Difficulty
intermediate
-------------------------------------------------------------------------------
                             Purist - Last Dinosaurs 
-------------------------------------------------------------------------------
Recently fixed this up, as my previous versions were garbage.
I've got the chords as close as I can get them, based on listening to the demo that's on their youtube and 
watching the live version to try and make out Sean Caskey's finger positions. 


intro chords (listen to song for rhythm, continues through verse)
e|--5--------x-------4-------------------------------------------|
B|--7--------7-------5-------------------------------------------|
G|--6--------7-------4-------------------------------------------|
D|--7--------6-------6-------------------------------------------|
A|--5--------x-------7-------------------------------------------|
E|--5--------7-------x-------------------------------------------|


"It's all that's meant to BEEEEEEEEE" (repeat 2x)
e|-------------------------------------------------------------------|
B|-14h15p--------------------------14h15p------------------17----15--|
G|-------14------------------14-16--------14------------------16-----|
D|----------16-14-14-1414-16-----------------16-14-14-14-14----------|
A|-------------------------------------------------------------------|
E|-------------------------------------------------------------------|


Pre-chorus (listen to song for rhythm):

   A     C#m

e|-5-|   e|-4-|   
B|-5-|   B|-5-|
G|-6-|   G|-6-|
D|-7-|   D|-6-|
A|-7-|   A|-4-|
E|-5-|   E|-x-|

Chorus chords (again, listen to song for rhythm):

  one last chance to make this right and I know
e|-5-|               e|-4-|               e|-2-|   
B|-5-|               B|-2-|               B|-3-|
G|-6-|               G|-2-|               G|-4-|
D|-7-|               D|-2-|               D|-0-|
A|-7-|               A|-0-|               A|-x-|
E|-5-|               E|-x-|               E|-x-|


notes over top of these chords:  

e|-----------------------------------------------------|
B|-17~~~----------19-----------------------------------|
G|------16~~14~~18--18~~-------------------------------|
D|-----------------------------------------------------|
A|-----------------------------------------------------|
E|-----------------------------------------------------|

Solo after first chorus (repeat 2x):
e|------------------------------------------------------------------------------------|
B|------------------------------------------------------------------------------------|
G|------------------------------------------------------------------------------------|
D|-13h14--------------------------------------13h14-------------16-16-16--------------|
A|------17--16-16-16-14--16-14-16-14-12-12-12------17--16-16-14----------16-16-16-14--|
E|------------------------------------------------------------------------------------|


************************************

| /   slide up
| \   slide down
| h   hammer-on
| p   pull-off
| ~   vibrato
| +   harmonic
| x   Mute note
| b   Bend
| pb  Pre-bend
| br  Bend release
| pbr Pre-bend release
| brb Bend release bend

************************************

            
            
Suggest correction
Creating personal tab
Creating personal tab
You can edit any tab online and save it as your Personal.

You can edit, replace or remove any tab part or add personal notes – all changes will be seen only by you.

Personal tabs can be accessed anytime from any device, even offline.
Learn more »
comments
print report bad tab
1 comment total.
0 reply
talis01 85 Apr 06, 2017 04:17 AM

Could you add the riff in the bridge. Otherwise, great tab

guest
You may want to rate the tab now too:
select rating
Wanna post a correction for this tab? Suggest correction