Oops, an error
Loading. Please wait.

Repair Bass Tab

1,042 views 3 this week
no commentswrite comment
1 2 3 4 5
excellent!
x 3
add to favorites
launch autoscroll
font size
0
reset
guitar tuner
Tab Pro tools
  • play this tab
  • loop segment
  • change instrument
  • show fretboard
  • metronome
×
Best way to learn
"Repair"
Autoscroll
slow
fast
+/-
esc
set tempo
stop
Contributor
Difficulty
intermediate
(0:25) 
G|--------------------------------------------|
D|----10--/12-10---10------10--/12-10----10---|
A|--------------10----10--------------10---10-|
E|--8---8----------------8---8----------------|
                                                   x2
G|--------------------------------------------|
D|----10--/12-10---10------10--/12-10----10---|
A|--8---8-------10----10-8---8--------10---10-|
E|--------------------------------------------|

(Straight into 0:48) It’s easiest to say…
G|------------------------------------1010-99-7-|
D|-----1010--------1010--------1010-------------|
A|----------------------------------------------|
E|-8---------8-8---------8-8--------8-----------|
                                                     x2
G|------------------------------------1010-99-7-|
D|-----1010--------1010--------1010-------------|
A|-8---------8-8---------8-8--------8-----------|
E|----------------------------------------------|

(1:12 - Just before ‘Seasons change, we’re not the same…’) 
G|--------------------------------------------|
D|----10--/12-10---10------10--/12-10----10---|
A|--------------10----10--------------10---10-|
E|--8---8----------------8---8----------------|
                                                 x2
G|---------------------------------1010-99-7--|
D|----10--/12-10---10------1010---------------|
A|--8---8-------10----10-8------8-------------|
E|--------------------------------------------|

(1:36)
G|---------------------------------------------------------------|
D|---------------------------------------------------------------|
A|-----------------8------------------------------8--------------|
E|-8-------------------------------8-----------------------------|

(1:59 – I wait for you outside…)
G|------------------------------------1010-99-7-|
D|-----1010--------1010--------1010-------------|
A|----------------------------------------------|
E|-8---------8-8---------8-8--------8-----------|
                                                     x2
G|------------------------------------1010-99-7-|
D|-----1010--------1010--------1010-------------|
A|-8---------8-8---------8-8--------8-----------|
E|----------------------------------------------|

(2:22 – Just before ‘I am taken by surprise…’
G|--------------------------------------------|
D|----10--/12-10---10------10--/12-10----10---|
A|--------------10----10--------------10---10-|
E|--8---8----------------8---8----------------|
                                                 x2
G|---------------------------------1010-99-7--|
D|----10--/12-10---10------1010---------------|
A|--8---8-------10----10-8------8-------------|
E|--------------------------------------------|

(2:46)
G|---------------------------------------------------------------|
D|---------------------------------------------------------------|
A|-----------------8------------------------------8--------------|
E|-8-------------------------------8-----------------------------|

(3:09) 
G|------------------------------------1010-99-7-|
D|-----1010--------1010--------1010-------------|
A|----------------------------------------------|
E|-8---------8-8---------8-8--------8-----------|
                                                     x4
G|------------------------------------1010-99-7-|
D|-----1010--------1010--------1010-------------|
A|-8---------8-8---------8-8--------8-----------|
E|----------------------------------------------|

(3:56 – ‘Can you be my hardest decision...’)
G|------------------------------------------------|
D|-----1010--------1010--------1010-------1010----|
A|------------------------------------------------|
E|-8---------8-8---------8-8--------8-8---------8-|
                                                     x2
G|------------------------------------------------|
D|-----1010--------1010--------1010-------1010----|
A|-8---------8-8---------8-8--------8-8---------8-|
E|------------------------------------------------|

(4:19)
G|------------------------------------1010-99-7-|
D|-----1010--------1010--------1010-------------|
A|----------------------------------------------|
E|-8---------8-8---------8-8--------8-----------|
                                                     x2
G|------------------------------------1010-99-7-|
D|-----1010--------1010--------1010-------------|
A|-8---------8-8---------8-8--------8-----------|
E|----------------------------------------------|

End on one note 8th fret E string and you’re done! About a 15 second outro by synth etc.
comments
We did not receive enough feedback on this tab! Please rate:
print report bad tab
1 2 3 4 5
I want to post or [tab]
guest
You may want to rate the tab now too:
select rating
Please do not post tabs as comments. Select "correction" instead!