Oops, an error
Loading. Please wait.

Used To Be Mine intro tab

version 1
version 1

Intro

2,801 views 6 this week
4 commentsread comments
1 2 3 4 5
x 5
add to favorites
×
Save as Personal and add changes to this tab that will be seen only by you. Learn more ›
×
You can save this tab as Personal to edit and correct it or add notes. All changes will be seen only by you. Learn more »
launch autoscroll
font size
0
reset
how to read this tab
guitar tuner
edit
Autoscroll
slow
fast
+/-
esc
set tempo
stop
First Tab, kinda sketchy. Enjoy!

E ------------------------------------------------------------------------------|
A ---------------------------------------------------------------------10h12-10-|
D --------------------------------------9-------10-12-10-9-9-10-10--------------|
G -7-9-9-7-9----------7-9-9--------9--------------------------------------------|
B -------------8h10-8-------8h10-8----------------------------------------------|
E ------------------------------------------------------------------------------|

            
            
Suggest correction
Creating personal tab
Creating personal tab
You can edit any tab online and save it as your Personal.

You can edit, replace or remove any tab part or add personal notes – all changes will be seen only by you.

Personal tabs can be accessed anytime from any device, even offline.
Learn more »
comments
print report bad tab
4 comments total. Showing first comments.
+3 reply
syarifphmy 75 Aug 02, 2013 07:08 AM

this tab is upside down!

0 reply
xPoPxKiDx110 10 Feb 02, 2015 09:24 PM

It is upside down! Here is how it should be written. Maybe he is left handed :)
E -----------------------------------------------------------------------------|
B -------------8h10-8-------8h10-8---------------------------------------------|
G -7-9-9-7-9----------7-9-9--------9-------------------------------------------|
D --------------------------------------9-------10-12-10-9-9-10-10-------------|
A ---------------------------------------------------------------------10h12-10|
E -----------------------------------------------------------------------------|

0 reply
xPoPxKiDx110 10 Feb 02, 2015 09:40 PM

My previous comment was fixing his current one, but here is my personal correction, as I believe it sounds close to the song!
E -----------------------------------------------------------------------------|
B -------------8h10-8-------8h10-8---------------------------------------------|
G -7-9---7-9----------7-9----------9-------------------------------------------|
D --------------------------------------9--------12-10-9-9-10------------------|
A --------------------------------------------------------------10h12-10-------|
E -----------------------------------------------------------------------------|

guest
You may want to rate the tab now too:
select rating
Wanna post a correction for this tab? Suggest correction