Oops, an error
Loading. Please wait.

The Stand Tab

309 views 1 this week
no commentswrite comment
1 2 3 4 5
please rate
add to favorites
launch autoscroll
font size
0
reset
how to read this tab
guitar tuner
Tab Pro tools
  • play this tab
  • loop segment
  • change instrument
  • show fretboard
  • metronome
×
Best way to learn
"The Stand"
Autoscroll
slow
fast
+/-
esc
set tempo
stop
Contributor
Difficulty
intermediate
Last Tuesday- The Stand
Tabbed by: jamuel24
Standard Tuning
Two Guitars, Guitar 1 Intro (2x, only repeat going from 466 to 244 the 2nd time)
e|---------------------------------------------------------------------------|
B|---------------------------------------------------------------------------|
G|-----------------------88-99--9/11-9-8-------------------------------------|
D|-----666--444-66-44----88-99--9/11-9-8-------------------------------------|
A|-----666--444-66-44----66-77--7/9--7-6-------------------------------------|
E|-----444--222-44-22--------------------------------------------------------|

Guitar 2 Intro (Come in 2nd time, play twice )
Just giving you the notes, you can figure out the rhythm
e|---------------------------------------------------------------------------|
B|---------------------------------------------------------------------------|
G|----88888888--66-11-9-88-99------------------------------------------------|
D|----xxxxxxxx--xx--x-x-xx-xx------------------------------------------------|
A|----66666666--44--9-7-66-77------------------------------------------------|
E|---------------------------------------------------------------------------|

Guitar 1 Verse (After the bass on the 1st part of the verse)
e|---------------------------------------------------------------------------|
B|---------------------------------------------------------------------------|
G|---------------------------------------------------------------------------|
D|-4~-+++-4~-66666666-4444-666666666666--4444-6666---------------------------|
A|-4~-+++-4~-66666666-4444-666666666666--4444-6666---------------------------|
E|-2~-+++-2~-44444444-2222-444444444444--2222-4444---------------------------|

Guitar 2, After the Guitar 1 Part (Ska beat)
e|---------------------------------------------------------------------------|
B|---9-9-9-9-7-7-9-9-9-9-9-9-------------------------------------------------|
G|---8-8-8-8-6-6-8-8-8-8-8-8-------------------------------------------------|
D|---------------------------------------------------------------------------|
A|---------------------------------------------------------------------------|
E|---------------------------------------------------------------------------|
Pre-Chorus: Guitar 1 plays first part of Verse 1

Chorus Guitar 1 (Rhythm different, play each chord a few more times, you’ll get it)
e|---------------------------------------------------------------------------|
B|---------------------------------------------------------------------------|
G|-----------------------88-99-11-11--9-11-8--9~-----------------------------|
D|-----666--444-66-44----88-99-11-11--9-11-8--9~-----------------------------|
A|-----666--444-66-44----66-77--9--9--7--9-6--7~-----------------------------|
E|-----444--222-44-22--------------------------------------------------------|

Intro Again
Verse 2 start with Guitar 2 doing the Ska notes, then Guitar 1 here:
e|---------------------------------------------------------------------------|
B|---------------------------------------------------------------------------|
G|---------------------------------------------------------------------------|
D|----6-6-6-6-4-4-6-6-6-6-6-6------------------------------------------------|
A|----6-6-6-6-4-4-6-6-6-6-6-6------------------------------------------------|
E|----4-4-4-4-2-2-4-4-4-4-4-4------------------------------------------------|


Pre-Chorus
Chorus
Bridge Guitar 2
e|---------------------------------------------------------------------------|
B|----9--(8x)-12-(8x)--7-(8x)-9-(4x)-----------------------------------------|
G|----8-------11-------6------8----------------------------------------------|
D|---------------------------------------------------------------------------|
A|---------------------------------------------------------------------------|
E|---------------------------------------------------------------------------|

Bridge Guitar 1 (4x)
e|---------------------------------------------------------------------------|
B|---------------------------------------------------------------------------|
G|-------------------------------8-6-4-3-3h4p3-------------------------------|
D|----octave up 3rd time^---------------------4-6~---------------------------|
A|--666--444--222-1-1h2p1----------------------------------------------------|
E|-------------------------2-4~----------------------------------------------|

Then play verses again
Post Bridge play harmonics
Before the final chorus, start your harmonic close to the first fret, and slide your 
up the board
End:
e|---------------------------------------------------------------------------|
B|---------------------------------------------------------------------------|
G|---------------------------------------------------------------------------|
D|--6666---------------------------------------------------------------------|
A|--6666---------------------------------------------------------------------|
E|--4444---------------------------------------------------------------------|
comments
We did not receive enough feedback on this tab! Please rate:
print report bad tab
1 2 3 4 5
I want to post or [tab]
guest
You may want to rate the tab now too:
select rating
Please do not post tabs as comments. Select "correction" instead!