Oops, an error
Loading. Please wait.

Pressure Tab

57 views 1 this week
no commentswrite comment
1 2 3 4 5
3 more votes to show rating
add to favorites
launch autoscroll
font size
0
reset
how to read this tab
guitar tuner
Autoscroll
slow
fast
+/-
esc
set tempo
stop
Help us to improve Ultimate-Guitar.com Take our survey!
×
repeat 2

e----10-10-10-10----5-5-5-5----7-7-7-7----3-3-3-3-------|
b----12-12-12-12----7-7-7-7----9-9-9-9----5-5-5-5-------|
g-------------------------------------------------------|
d-------------------------------------------------------|
a-------------------------------------------------------|
e-------------------------------------------------------|

e-4-s-------4-s-s-------------------------------------|
b---5-s-------5--s------------------------------------|
g-----6-s-------6--s----------------------------------|
d-----------------------------------------------------|
a-----------------------------------------------------|
e----------------------0000---------------------------|
Suggest correction
Give kudos to tab author, rate the tab!
1 2 3 4 5
comments
print report bad tab
guest
You may want to rate the tab now too:
select rating
Wanna post a correction for this tab? Suggest correction