Oops, an error
Loading. Please wait.

Blackberry Stone Tab

45,199 views 39 this week
6 commentsread comments
1 2 3 4 5
excellent!
x 21
add to favorites
launch autoscroll
font size
0
reset
how to read this tab
guitar tuner
Tab Pro tools
  • play this tab
  • loop segment
  • change instrument
  • show fretboard
  • metronome
×
Best way to learn
"Blackberry Stone"
Autoscroll
slow
fast
+/-
esc
set tempo
stop
Difficulty
Capo
novice
2nd fret
Laura Marling - Blackberry Stone

Tabbed by DJFenner

Capo on 2nd


Intro:
|---------------------------------|
|---1---1---1---1---1---1---0---0-|
|---2---2---2---2---0---0---0---0-|
|-----2-------2------0H2----------|
|-0-------0-------3----------0H2--|
|-------------------------3-------|

|---------------------------------|
|---1---1---1---1---1---1---1-----|
|---2---2---2---2---2---2---2-----|
|-----2-------2-------2-------2---|
|-0-------0-------0-------0-------|
|---------------------------------|



Verse:
|---------------------------------|
|---1---1---1---1---1---1---1---1-|
|---2---2---2---2---0---0---0---0-|
|-----2-------2-------2-------2---|
|-0-------0-------3-------3-------|
|---------------------------------|
Well I,    own this field,

|---------------------------------|
|---1---1---1---1---1---1---1---1-|
|---2---2---2---2---0---0---0---0-|
|-----2-------2-------2-------2---|
|-0-------0-------3-------3-------|
|---------------------------------|
and I,     wrote this sky,

|---------------------------------|
|---1---1---1---1---1---1---1---1-|
|---2---2---2---2---0---0---0---0-|
|-----2-------2-------2-------0---|
|-0-------0-------3-------2-------|
|---------------------------------|
And I,     have no reason, to reason with you.

|---------------------------------|
|---1---1---1---1---1---1---------|
|---2---2---2---2---2---2---------|
|---------------------------------|
|-----3-------3-------3-----------|
|-1-------1-------1-------1-------|



|---------------------------------|
|---1---1---1---1---1---1---1---1-|
|.--2---2---2---2---0---0---0---0-|
|.----2-------2-------2-------2---|
|-0-------0-------3-------3-------|
|---------------------------------|
(1)I'd be sad that I never held your hand as you were lowered,
(2)I'd be sad that I never held your hand as you were lowered,

|---------------------------------|
|---0---0---0---0---1---1---1---1-|
|---0---0---0---0---2---2---2---2.|
|---------------------2-------2--.|
|-----2-------2---0-------0-------|
|-3-------3-----------------------|
(1)but I'd understand that I'd never let it go.
(2)but I'd understand the world does what it does.



Chorus:
|---3---3---0---0---3---3---3---3-|
|---1---1---1---1---0---0---0---0-|
|.--2---2---0---0---0---0---0---0.|
|.3---3---2---2------------------.|
|---------------------2-------2---|
|-----------------3-------3-------|
(1)And you never did learn to let the little things go,
(2)And you neverl did learn to let me be.

|---3---3---0---0---3---3---3---3-|
|---1---1---1---1---0---0---0---0-|
|---2---2---0---0---0---0---0---0-|
|-3---3---2---2-------------------|
|---------------------2-------2---|
|-----------------3-------3-------|
And you never did learn to let little people grow,

|---3---3---0---0---3---3---3---3-||---3---3---3---(3)-|
|---1---1---1---1---0---0---0---0-||---0---0---0---(0)-|
|---2---2---0---0---0---0---0---0-||---0---0---0---(0)-|
|-3---3---2---2-------------------||-------------------|
|---------------------2-------2---||-----2-------2-----|
|-----------------3-------3-------||-3-------3---------|
And you never did learn how to see.



Verse 2:
|---------------------------------|
|---1---1---1---1---1---1---1---1-|
|---2---2---2---2---0---0---0---0-|
|-----2-------2-------2-------2---|
|-0-------0-------3-------3-------|
|---------------------------------|
But I whisper that I love this man, now and for forever,

|---------------------------------|
|---0---0---0---0---1---1---1---1-|
|---0---0---0---0---2---2---2---2-|
|---------------------2-------2---|
|-----2-------2---0-------0-------|
|-3-------3-----------------------|
To your soul as it floats out of the window.

|---------------------------------|
|---1---1---1---1---0---0---0---0-|
|---2---2---0---0---0---0---0---0-|
|-----2-------2-------------------|
|-0-------3-----------2-------2---|
|-----------------3-------3-------|
To the world that you turned your back on,

|---------------------------------||-------------------|
|---1---1---1---1---0---0---0---0-||---0---0---0---(0)-|
|---2---2---0---0---0---0---0---0-||---0---0---0---(0)-|
|-----2-------2-------------------||-------------------|
|-0-------3-----------2-------2---||-----2-------2-----|
|-----------------3-------3-------||-3-------3---------|
To the world that never really let you be.

|---------------------------------|
|---1---1---1---1---1---1---1---1-|
|---2---2---2---2---0---0---0---0-|
|-----2-------2-------2-------2---|
|-0-------0-------3-------3-------|
|---------------------------------|
And I am Laura now, and Laura still,



Chorus:
|---3---3---0---0---3---3---3---3-|
|---1---1---1---1---0---0---0---0-|
|.--2---2---0---0---0---0---0---0.|
|.3---3---2---2------------------.|
|---------------------2-------2---|
|-----------------3-------3-------|
(1)And you did always say that one day I would suffer.
(2)You did always say that people get their pay.

|---3---3---0---0---3---3---3---3-|
|---1---1---1---1---0---0---0---0-|
|---2---2---0---0---0---0---0---0-|
|-3---3---2---2-------------------|
|---------------------2-------2---|
|-----------------3-------3-------|
You did always say that I was going places,

|---3---3---0---0---3---3---3---3-||---3---3---3---(3)-|
|---1---1---1---1---0---0---0---0-||---0---0---0---(0)-|
|---2---2---0---0---0---0---0---0-||---0---0---0---(0)-|
|-3---3---2---2-------------------||-------------------|
|---------------------2-------2---||-----2-------2-----|
|-----------------3-------3-------||-3-------3---------|
And that you wouldn't have it any other way.



Ending:
|---0---0---0---0---0---0---0---0-||---3---3---3---3---3---3---3---3-|
|---1---1---1---1---1---1---1---1-||---0---0---0---0---0---0---0---0-|
|---2---2---2---2---0---0---0---0-||---0---0---0---0---0---0---0---0-|
|-----2-------2-------2-------2---||---------------------------------|
|-0-------0-------3-------3-------||-----2-------2-------2-------2---|
|---------------------------------||-3-------3-------3-------3-------|
But I couldn't turn my back on a world, for what I like wouldn't let me.

|---0---0---0---0---0---0---0---0-||---3---3---3---3---3---3---3---3-|
|---1---1---1---1---1---1---1---1-||---0---0---0---0---0---0---0---0-|
|---2---2---2---2---0---0---0---0-||---0---0---0---0---0---0---0---0-|
|-----2-------2-------2-------2---||---------------------------------|
|-0-------0-------3-------3-------||-----2-------2-------2-------2---|
|---------------------------------||-3-------3-------3-------3-------|
But I couldn't turn my back on a world, for what I like I need this.

|---0---0---0---0---0---0---0---0-||---3---3---3---3---3---3---3---3-|
|---1---1---1---1---1---1---1---1-||---0---0---0---0---0---0---0---0-|
|---2---2---2---2---0---0---0---0-||---0---0---0---0---0---0---0---0-|
|-----2-------2-------2-------2---||---------------------------------|
|-0-------0-------3-------3-------||-----2-------2-------2-------2---|
|---------------------------------||-3-------3-------3-------3-------|

|---0---0---0---0---0---0---0---0-||---3---3---3---3---3---3---3---3-|
|---1---1---1---1---1---1---1---1-||---0---0---0---0---0---0---0---0-|
|---2---2---2---2---0---0---0---0-||---0---0---0---0---0---0---0---0-|
|-----2-------2-------2-------2---||---------------------------------|
|-0-------0-------3-------3-------||-----2-------2-------2-------2---|
|---------------------------------||-3-------3-------3-------3-------|

|---0---0---0---0---0---0---0---0-||---3---3---3---3---3---3---3---3-|
|---1---1---1---1---1---1---1---1-||---0---0---0---0---0---0---0---0-|
|---2---2---2---2---0---0---0---0-||---0---0---0---0---0---0---0---0-|
|-----2-------2-------2-------2---||---------------------------------|
|-0-------0-------3-------3-------||-----2-------2-------2-------2---|
|---------------------------------||-3-------3-------3-------3-------|
But I couldn't turn my back on a world, for what I like wouldn't let me,

|---0---0---0---0---0---0---0---0-||---3---3---3---3---3---3---3---3-|
|---1---1---1---1---1---1---1---1-||---0---0---0---0---0---0---0---0-|
|---2---2---2---2---0---0---0---0-||---0---0---0---0---0---0---0---0-|
|-----2-------2-------2-------2---||---------------------------------|
|-0-------0-------3-------3-------||-----2-------2-------2-------2---|
|---------------------------------||-3-------3-------3-------3-------|
and I couldn't turn my back on a world, for what I like i need this,

|---0---0---0---0---0---0---0---0-||-----------0--------3------------|
|---1---1---1---1---1---1---1---1-||---0---0---1-------0-------------|
|---2---2---2---2---0---0---0---0-||---0---0---0------0--------------|
|-----2-------2-------2-------2---||---0---0---2-----0---------------|
|-0-------0-------3-------3-------||---2---2---3----2----------------|
|---------------------------------||-3-3---3-------3-----------------|
and i shouldn't turn my back on a sweet smelling blackberry stone.

end.
comments
print report bad tab
6 comments total. Showing first comments.
+1 reply
Odetta wrote on October 8 2010, 02:39 pm

|---------------------------------|
|---1---1---1---1---1---1---------|
|---2---2---2---2---2---2---------|
|---------------------------------|
|-----3-------3-------3-----------|
|-1-------1-------1-------1-------|

what chord is this exactly? it doesn't sound quite right when I play it. Thanks!

0 reply
caiussy wrote on March 19 2013, 04:17 pm

It's an F Major but the bar chord.

0 reply
GraceDaisie wrote on March 9 2012, 01:15 pm

Brilliant, amazing tab. Thank you so much!!

I want to post or [tab]
guest
You may want to rate the tab now too:
select rating
Please do not post tabs as comments. Select "correction" instead!